a b c d e f g h i j k l m n o p q r s t u v w x y z 0-9

Mi Muñeca

Panda

B
F#
G#m
E
C#
G#
			
 Mi Muñeca

E|--------------------------------|
B|-----2--------2-4-5-4-2---2-----|
G|-4-------4--------------4---4-3-|
D|---4---4---4--------------------|
A|--------------------------------|
E|--------------------------------|[X2]

E|--------6-7-6------------------------|
B|-----4--------4----------------------|
G|-4-6------------6-6-4----------------|
D|-------------------------------------|
A|-------------------------------------|
E|-------------------------------------|[X2]

 B            F#        G#m    E           B
Todo lo que necesites solo yo lo puedo dar
         F#        G#m    E           
todo lo que tu quieras yo lo tengo
B          F#        G#m    E           B 
Necesitas un abrigo entre mis brazos estara
          F#        G#m    E          
necesitas un camino yo lo pinto


B   F#        G#m    E       
Mi muñeca esta llorando
B  F#      G#m    
mi muñeca esta
B    F#        G#m    E      
Mi muñeca esta llorando
B   F#    G#m  
mi muñeca esta

B            F#        G#m    E           B
Mi muñeca esta llorando pero yo no se porque
         F#            G#m    E           
sera que no me quiere, no me quiere
B        F#        G#m    E           B 
necesitas un amigo, aqui yo mero estare
   F#                    G#m    E          
pero te pido que me mates, matame

-OJO- CON EL CAMBIO

C#    G#       A#m    F#
Mi muñeca esta llorando
G#       A#m    F#
mi muñeca esta
C#    G#       A#m    F#
Mi muñeca esta llorando
G#       A#m    F#
mi muñeca esta

[solo]
E-------------6-6---9----------------6-6-9---------------|  
B-6-9---6--------------6-9---6---------------------------|
G-----8---8-6---------------8---8-6----------------------|
D--------------------------------------------------------|
A--------------------------------------------------------|
E--------------------------------------------------------|[X2]

E---8-9---8-9---8-9---11-11------------------------------|
B--6-----6-----6----6------------------------------------|
G-8-----8-----8----8-------------------------------------|
D--------------------------------------------------------|
A--------------------------------------------------------|
E--------------------------------------------------------|



C#    G#       A#m    F#
Mi muñeca esta llorando
G#       A#m    F#
mi muñeca esta
C#    G#       A#m    F#
Mi muñeca esta llorando
G#       A#m    F#
mi muñeca esta



C#  G#      A#m       F#       C#
Sabes que fue? talvez porque?
   G#     F#        G#          C#
ella lloro [nadie la hizo llorar]
C#  G#      A#m       F#       C#
Yo la quiero, mas no quiero
  G#    F#       G#           C#   
verla feliz [nadie la hizo llorar]
 F#      G#          C#
[nadie la hizo llorar]
F#      G#          C#
nadie la hizo llorar
F#      G#          C#
nadie la hizo llorar
 

Fuente: tusacordes.com