a b c d e f g h i j k l m n o p q r s t u v w x y z 0-9

Mi Muñeca

Panda

			
Intro
el----------------------l-------------------------------|
Bl------2------------2--l-4--5--4--2--0-----0h2---------|
Gl-4----------4---------l--------------------------4--3-l  x2
Dl----4---4-------4-----l-------------4-----4-----------|
Al-2--------------------l-------------------------------|
El------------2---------l----4-----------0--------------|

Guitarra ritmica
-----------------------------------|
-----------------------------------|
---4-4-4-4-------------------------| x4
---4-4-4-4-4-4-4-4-6-6-6-6-2-2-2-2-|
---2-2-2-2-4-4-4-4-6-6-6-6-2-2-2-2-|
-----------2-2-2-2-4-4-4-4-0-0-0-0-|

Guitarra 1
-----------6-7---------|
-4--5--6-------6?5--4--|
-----------------------| x4
-----------------------|
-----------------------|
-----------------------|

Guitarra 2
-------------------------------|
-0--2--0--2---4-5-4-2-0?2------|
---------------------------4-3-|
-------------------------------| x4
-------------------------------|
-------------------------------|

Guitarra 1 Cambio de tono
---------------------------------|
---------------------------------|
-6-6-6-6-------------------------|
-6-6-6-6-6-6-6-6-8-8-8-8-4-4-4-4-l
-4-4-4-4-6-6-6-6-8-8-8-8-4-4-4-4-|
---------4-4-4-4-6-6-6-6-2-2-2-2-l



Solo:

SOLO Mientras toca la Guitarra 1 con el cambio de tono
--------------------------|-------------------------|
----9---------------------|----9----------11-11-9-7-|
-10---8-10-8--------11-10-|-10---8-10-8-------------|
-------------11-11--------|-------------11----------|
--------------------------|-------------------------|
--------------------------|-------------------------|

--------------------9-----8-9-----8-9------8-9----------11-11-9-9-9-9~-|
----9----------11-11---------------------------------------------------|
-10--8-10-8----------11-10----11-10----11-10-----11-10-----------------|
------------11---------------------------------------------------------|
-----------------------------------------------------------------------|
-----------------------------------------------------------------------|

Fuente: tusacordes.com