a b c d e f g h i j k l m n o p q r s t u v w x y z 0-9

Mi Huracan Llevaba Tu Nombre

Panda

			
Intro

G|-----------------------------------------------------------------------|
D|-----------------------------------------------------------------------|
A|-----------------------------------------------66-6-66-66--------------|
E|-66-6-66-66-66-6-66-66--33-3-33-33-33-3-33-33--------------66-6-66-66--|

G|-------------------------|
D|-------------------------|
A|-------------------------|
E|-11-1-11-11-11-1-11-11---|

G|----------------------------------------------------|
D|----------------------------------------------------|
A|-----------------------666666-----------------------|
E|-666666666--333333333----------666666--111111111111-|

Verso

G|----------------------------------------------------------------------|
D|----------------------------------------------------------------------|
A|-----------------------------------------------66-6-66-66-66-6-66-66--|
E|-66-6-66-66-66-6-66-66--33-3-33-33-33-3-33-33-------------------------|

G|------------|
D|------------|
A|------------| x2
E|-111111111--|


Pre Coro Te prometo me va a encantar...

G|----------------------------------------------|
D|---8---8---8----------------------------------|
A|-6---6---6-----8---8---8---5---5---5----------| x2
E|-------------6---6---6---3---3---3----111111--|

Coro

 Hace Tiempo Atrás...
G|-------------------------------------------------|
D|-------------------------------------------------|
A|-------------------------66-6-66-66--------------| x2
E|-66-6-66-66--33-3-33-33--------------11-1-11-11--|

 Y cantarás...
G|---------------------------------|
D|---------------------------------|
A|-----------------666666----------| x2
E|-666666--333333----------111111--|

Intro

G|-----------------------------------------------------------------------|
D|-----------------------------------------------------------------------|
A|-----------------------------------------------66-6-66-66--------------|
E|-66-6-66-66-66-6-66-66--33-3-33-33-33-3-33-33--------------66-6-66-66--|

G|-------------------------|
D|-------------------------|
A|-------------------------|
E|-11-1-11-11-11-1-11-11---|

Verso

Pre Coro

Coro

Puente

G|--------------------------------------------------|
D|---8---8---8--------------------------------------|
A|-6---6---6-----8---8---8---5---5---5----3---3---3-| x2
E|-------------6---6---6---3---3---3----1---1---1---|

G|----------------------------------|
D|----------------------------------|
A|-666666---------------------------|
E|---------666666--333333--111111---|

Coro Final

G|---------------------------------|
D|---------------------------------|
A|-----------------888888----------| x4
E|-888888--555555----------333333--|

Fin

G|------|
D|------|
A|------|
E|--1---|Fuente: Tus acordes