a b c d e f g h i j k l m n o p q r s t u v w x y z 0-9

Mi Huracan Llevaba Tu Nombre (intro)

Panda

			
K 0nd... sta es mi pRimeR kaNci0n k sUb0...
sGun io está biEn  peRo si n0 leS guSta ps Ai m deXan sus komEntaRios...
/i/a pXndX!!!!

E|------------------------------------------------------------------|
B|-4-4-|-4--4-4-4-x6  4--4-3-4-3------------------------------------|
G|--------------------------------2--4-4-| 4--4-4-4-x2  4--4-2-4-2--|
D|-----------------------------------------------------------------4|
A|------------------------------------------------------------------|
E|------------------------------------------------------------------|

E|------------------------------------------------------------------|
B|------------------------------------------------------------------|
G|-0-0-|-0--0-0-0--0-0------------2-2--2-2----6-6-|-6--6-6-6--6-6---|
D|----------------------4-4--4-4------------------------------------|
A|------------------------------------------------------------------|
E|------------------------------------------------------------------|

E|------------------|
B|------------------|
G|-8-6------6-5-----|
D|-----10-------8---|
A|------------------|
E|------------------|

Fuente: tusacordes.com