a b c d e f g h i j k l m n o p q r s t u v w x y z 0-9

Matando Memorias

Panda

F
			
Matando memorias panda
Intro:

E|-----------2-----------2-------------2-----------2--|
B|-----3-----3-----3-----3-------3-----3-----3-----3--|
G|-----2-----------2-------------2-----------2--------|
D|--0-----0-----0-----0-------0-----0-----0-----0-----| X2
A|----------------------------------------------------|
E|----------------------------------------------------|

E|-----------2-----------2-------------2-----------2--|
B|-----3-----3-----3-----3-------3-----3-----3-----3--|
G|-----0-----------0-------------0-----------0--------|
D|--0-----0-----0-----0-------0-----0-----0-----0-----| x4
A|----------------------------------------------------|
E|----------------------------------------------------|

E|----------------------------------------------------|
B|-12-10------------10--------------------------------|
G|-------12-9-11-12----12-11-9---11-12-11--11-12-11---|
D|----------------------------12--------------------12|
A|----------------------------------------------------|
E|----------------------------------------------------|

                              Fhoye tengo    Mdime
                             q hablar contigo
E|----------------------------------------------------|
B|-12-10------------10--------------------------------|
G|-------12-9-11-12----12-11-9------0-----------------|
D|--------------------------------4---4-----4-7-4-----|
A|------------------------------5---------5-----------|
E|----------------------------------------------------|

  Fpues es estado pensando q        Mpor q
  q ya no quiero estar contigo
      ya no quiro andar
E|----------------------------------------------------|
B|----------------------------------------------------|
G|------0-----------------0-------2-0-----------------|
D|----4---4----4-5-4----4---4---4-------2-------0-4-0-|
A|----------------------------------------------------|
E|--5--------5--------3-------3-------0---0-2-3-------|

   Fnc es q son varias cosas pr ejemplo tu personalidad
  q ya no aguanto tu la veda tienes muchos problemas y ya
 n quiero resolverlos y cuando los rezsuelves no me gusta
                la manera en la q lo haces
E|----------------------------------------------------|
B|----------------------------------------------------|
G|-----0-----------------0-----------------0-------2-0|
D|---4---4----4-7-4----4---4----4-5-4----4---4---4----|
A|-5--------5-----------------------------------------|
E|-------------------5--------5--------3-------3------|

  


Myo no tengo  Fhay si los tienes  Mbueno ore tu
     problemas      nomas q los niegas   q tengo problemas
E|--------------------3-3--2-2---3-3--2-2-2?-0--2-----|
B|----------------------------------------------------|
G|----------------------------------------------------|
D|----2-------0--4-0----------------------------------|
A|----------------------------------------------------|
E|--0---0-2-3-----------------------------------------|

Mdices quererme y yo   Fes q ese es    Mq!!!
    ya no tenerlos       es el preoblema
E|-3-3--2-2?-3-3-2-2--5-5-2-3-3--2-2--3-3--2-2-2?-0--2|
B|----------------------------------------------------|
G|----------------------------------------------------|
D|----------------------------------------------------|
A|----------------------------------------------------|
E|----------------------------------------------------|

Fya no t    My hayer q me dijiste       Fperdon
  quiero   t amo era mentira no lo sentias
E|3-3--2-2---3-3--2-2-2?-0--2--3-3--2-2?-3-3-2-2-5-5-2|
B|----------------------------------------------------|
G|----------------------------------------------------|
D|----------------------------------------------------|
A|----------------------------------------------------|
E|----------------------------------------------------|

Mdesd cuando Fes q no quieo  Mdesd cuando
    estas asi      lastimart
E|3-3--2-2---3-3--2-2-2?-0--2--3-3--2-2?-3-3-2-2-5-5-2|
B|----------------------------------------------------|
G|----------------------------------------------------|
D|----------------------------------------------------|
A|----------------------------------------------------|
E|----------------------------------------------------|

Fes q yo ya lo    Mentocs me estas diciendo q
  habia pensado     todo este tiempo q estuvimos me
                   me decias q me querias sin sentirlo

E|3-3--2-2---3-3--2-2-2?-0--2--3-3--2-2?-3-3-2-2-5-5-2|
B|----------------------------------------------------|
G|----------------------------------------------------|
D|----------------------------------------------------|
A|----------------------------------------------------|
E|----------------------------------------------------|


         D                    Bm                  Em
Y ahora tomo para mantenerme tibio y asi poder asesinar
                         G        A
las memorias y ya no en ella pensar
         D                      Bm
si es imposible para mi poder sentirme mejor
Em                                 G               A
como esperar que algun dia alguien le fuera a importar



ojO!!!se repite todo el arpegio pero el dialogo cambia


       D                    Bm                  Em
Y ahora tomo para mantenerme tibio y asi poder asesinar
                         G        A
las memorias y ya no en ella pensar
         D                      Bm
y yo caí en la promesa de una vida feliz
Em                          G               A
como duele saber que no será imposible otra vez


  F2oye ya me entere q Fes q me di cuenta
     cortaron q paso        q no era para mi
E|----------------------------------------------------|
B|----------------------------------------------------|
G|----------------------------------------------------|
D|--*4-*4-4---*4-*4-4--*4-*4-4---*4-*4-4---*4-*4-4----|
A|--*5-*5-5---*5-*5-5---------------------------------|
E|---------------------*5-*5-5---*5-*5-5---*3-*3-3----|

  F2y depues de tanto        Fes q part d todo m
tiempo t vienes dndo cuenta    arrepiento d aber vuelto
                                  cn el hac dos años
  
E|----------------------------------------------------|
B|----------------------------------------------------|
G|----------------------------------------------------|
D|-*4-*4-4---*0-*0-0---*0-*0-0---*4-*4-4--*4-*4-------|
A|-------------------------------*5-*5-5--*5-*5-------|
E|-*3-*3-3---*0-*0-0---*0-*0-0------------------------|


       D                    Bm                  Em
Y ahora tomo para mantenerme tibio y asi poder asesinar
                         G        A
las memorias y ya no en ella pensar
         D                      Bm
y yo caí en la promesa de una vida feliz
Em                          G               A
 


como duele saber que no será imposible otra vez


ojala ke les guste bno biie c kuidan ii kual kier koza esta es mi msn ax3l_plata@hotmail.com

Fuente: tusacordes.com