a b c d e f g h i j k l m n o p q r s t u v w x y z 0-9

Martirio De Otro

Panda

			
ps este es mi primer aporte XD
Afinacion:D#G#C#F#A#D#
ps ojala les guste


 Parte Acustica
        
------------------------|------------------------|
--5----5----5--5--5--5--|----5--5----5--5--5--5--|                                                  
--6----6----6--6--6--6--|----6--6----6--6--6--6--|
--6----6----6--6--6--6--|----6--6----6--6--6--6--|
--4----4----4--4--4--4--|----4--4----4--4--4--4--|
------------------------|------------------------|



------------------------|------------------------|                     
------------------------|------------------------|                                                
--6----6----6--6--6--6--|----6--6----6--6--6--6--|
--7----7----7--7--7--7--|----7--7----7--7--7--7--|
--7----7----7--7--7--7--|----7--7----7--7--7--7--|
--5----5----5--5--5--5--|----5--5----5--5--5--5--|

                                                  
------------------------|------------------------|
------------------------|------------------------|
--9----9----9--9--9--9--|----9--9----9--9--9--9--|
--9----9----9--9--9--9--|----9--9----9--9--9--9--|
--7----7----7--7--7--7--|----7--7----7--7--7--7--|
--9----9----9--9--9--9--|----9--9----9--9--9--9--|


    
------------------------|------------------------|
------------------------|------------------------|
--6----6----6--6--6--6--|----6--6----6--6--6--6--|
--7----7----7--7--7--7--|----7--7----7--7--7--7--| X2
--7----7----7--7--7--7--|----7--7----7--7--7--7--|
--5----5----5--5--5--5--|----5--5----5--5--5--5--|

   
   

0:22
----------------------|----------------------|
----------------------|----------------------|
--6----6----6----6----|--6----6----6----6----|
--6----6----6----6----|--6----6----6----6----|
--4----4----4----4----|--4----4----4----4----|
----------------------|----------------------|


----------------------|----------------------|
----------------------|----------------------|
----------------------|----------------------|
--7----7----7----7----|--7----7----7----7----|
--7----7----7----7----|--7----7----7----7----| X2
--5----5----5----5----|--5----5----5----5----|




0:33
--------------------------|--------------------------|
--------------------------|--------------------------|
--------------------------|--------------------------|
--6--6--6--6--6--6--6--6--|--6--6--6--6--6--6--6--6--|
--4--4--4--4--4--4--4--4--|--4--4--4--4--4--4--4--4--|
--------------------------|--------------------------|

 
--------------------------|--------------------------|
--------------------------|--------------------------|
--------------------------|--------------------------|
--------------------------|--------------------------|
--7--7--7--7--7--7--7--7--|--7--7--7--7--7--7--7--7--|
--5--5--5--5--5--5--5--5--|--5--5--5--5--5--5--5--5--|

 
--------------------------|--------------------------|
--------------------------|--------------------------|
--------------------------|--------------------------|
--------------------------|--------------------------|
--2--2--2--2--2--2--2--2--|--2--2--2--2--2--2--2--2--|
--0--0--0--0--0--0--0--0--|--0--0--0--0--0--0--0--0--|



--------------------------|--------------------------|
--------------------------|--------------------------|
--------------------------|--------------------------|
--------------------------|--------------------------|
--7--7--7--7--7--7--7--7--|--7--7--7--7--7--7--7--7--|
--5--5--5--5--5--5--5--5--|--5--5--5--5--5--5--5--5--|


0:45  
------------------------------|------------------------------|
------------------------------|------------------------------|
--9------9------9------9------|--9------9------9------9------|
-----11-----11-----11-----11--|-----11-----11-----11-----11--|
------------------------------|------------------------------|
------------------------------|------------------------------|

  
----------------------------------|----------------------------------|
----------------------------------|----------------------------------|
--13------13------13------13------|--13------13------13------13------|
------14------14------14------14--|------14------14------14------14--|
----------------------------------|----------------------------------|
----------------------------------|----------------------------------|


  
----------------------------------|----------------------------------|
----------------------------------|----------------------------------|
----------------------------------|----------------------------------|
--13------13------13------13------|--13------13------13------13------|
------14------14------14------14--|------14------14------14------14--|
----------------------------------|----------------------------------|

 
------------------------------|-------------------------------|
------------------------------|-------------------------------|
--9------9------9------9------|--11------9------9------9------|
-----11-----11-----11-----11--|------11-----11-----11-----11--|
------------------------------|-------------------------------|
------------------------------|-------------------------------|


0:56
------------------------|-----------------------|------------------------|
------------------------|-----------------------|------------------------|
--9--8----9--8----9--8--|-----9--8----9--8------|-----8--9----8--9----8--|
------------------------|-----------------------|--7---------------------|
------------------------|-----------------------|------------------------|
------------------------|-----------------------|------------------------|


    
-----------------------|------------------------------|
-----------------------|------------------------------|
--9----8--9----8--9----|--13--------13--------13------|
-----------------------|------14--------14--------14--|
-----------------------|------------------------------|
-----------------------|------------------------------|

 
---------------------------|------------------------------|
---------------------------|------------------------------|
-----13--------13----------|------------------------------|
---------14--------14------|------14--16----14--16----14--|
---------------------------|--13--------------------------|
---------------------------|------------------------------|


                               1:08
----------------------------|------------------------------|
----------------------------|------------------------------|
----------------------------|------------------------------|
--16----14--16----14--16----|--14--13----14--13----14--13--|
----------------------------|------------------------------|
----------------------------|------------------------------|


   
---------------------------|------------------------------|
---------------------------|------------------------------|
---------------------------|------------------------------|
-----14--13----14--13------|------13--14----13--14----13--|
---------------------------|--12--------------------------|
---------------------------|------------------------------|


     
----------------------------|------------------------------|
----------------------------|------------------------------|
----------------------------|--13--------13--------13------|
--14----13--14----13--14----|------14--------14--------14--|
----------------------------|------------------------------|
----------------------------|------------------------------|


   
---------------------------|------------------------------|
---------------------------|------------------------------|
-----13--------13----------|------------------------------|
---------14--------14------|------14--16----14--16----14--|
---------------------------|--13--------------------------|
---------------------------|------------------------------|


   
----------------------------|
----------------------------|
----------------------------|
--16----14--16----14--16----|
----------------------------|
----------------------------|




Coro
--------------------------|
--------------------------|
--6--6--6--6--6--6--6--6--|
--6--6--6--6--6--6--6--6--|
--4--4--4--4--4--4--4--4--|
--------------------------|
   
--------------------------|--------------------------|
--------------------------|--------------------------|
--6--6--6--6--6--6--6--6--|--------------------------|
--6--6--6--6--6--6--6--6--|--7--7--7--7--7--7--7--7--|
--4--4--4--4--4--4--4--4--|--7--7--7--7--7--7--7--7--|
--------------------------|--5--5--5--5--5--5--5--5--|


    
--------------------------|--------------------------|
--------------------------|--------------------------|
--------------------------|--9--9--9--9--9--9--9--9--|
--7--7--7--7--7--7--7--7--|--9--9--9--9--9--9--9--9--|
--7--7--7--7--7--7--7--7--|--7--7--7--7--7--7--7--7--|
--5--5--5--5--5--5--5--5--|--------------------------|

   
--------------------------|--------------------------|
--------------------------|--------------------------|
--9--9--9--9--9--9--9--9--|--------------------------|
--9--9--9--9--9--9--9--9--|--9--9--9--9--9--9--9--9--|
--7--7--7--7--7--7--7--7--|--9--9--9--9--9--9--9--9--|
--------------------------|--7--7--7--7--7--7--7--7--|


    
----------------------------------|--------------------------|
----------------------------------|--------------------------|
----------------------------------|--6--6--6--6--6--6--6--6--|
--10--10--10--10--10--10--10--10--|--6--6--6--6--6--6--6--6--|
--10--10--10--10--10--10--10--10--|--4--4--4--4--4--4--4--4--|
---8---8---8---8---8---8---8---8--|--------------------------|
 
--------------------------|--------------------------|
--------------------------|--------------------------|
--6--6--6--6--6--6--6--6--|--------------------------|
--6--6--6--6--6--6--6--6--|--7--7--7--7--7--7--7--7--|
--4--4--4--4--4--4--4--4--|--7--7--7--7--7--7--7--7--|
--------------------------|--5--5--5--5--5--5--5--5--|


--------------------------|--------------------------|
--------------------------|--------------------------|
--------------------------|--9--9--9--9--9--9--9--9--|
--7--7--7--7--7--7--7--7--|--9--9--9--9--9--9--9--9--|
--7--7--7--7--7--7--7--7--|--7--7--7--7--7--7--7--7--|
--5--5--5--5--5--5--5--5--|--------------------------|
  
--------------------------|--------------------------|
--------------------------|--------------------------|
--9--9--9--9--9--9--9--9--|--------------------------|
--9--9--9--9--9--9--9--9--|--9--9--9--9--9--9--9--9--|
--7--7--7--7--7--7--7--7--|--9--9--9--9--9--9--9--9--|
--------------------------|--7--7--7--7--7--7--7--7--|

----------------------------------|
----------------------------------|
----------------------------------|
--10--10--10--10--10--10--10--10--|
--10--10--10--10--10--10--10--10--|
---8---8---8---8---8---8---8---8--|


Solo

--7-4-6-7-7-6-4-6-7-4-6-7-7-6-4-6-|
----------------------------------|
----------------------------------|
----------------------------------|
----------------------------------|
----------------------------------|



--7-4-6-7-7-6-4-6-7-4-6-7-7-6-4-6-|
----------------------------------|
----------------------------------|
----------------------------------|
----------------------------------|
----------------------------------|


--12-9-11-12-12-11-9-11-12-9-11-12-12-11-9-11-|
----------------------------------------------|
----------------------------------------------|
----------------------------------------------|
----------------------------------------------|
----------------------------------------------|


    
--------------------------------------------------|
--17----16-17-17-16----16-17----16-17-17-16----16-|
-----18-------------18-------18-------------18----|
--------------------------------------------------|
--------------------------------------------------|
--------------------------------------------------|


1:47

--7-4-6-7-7-6-4-6-7-4-6-7-7-6-4-6-|--7-4-6-7-7-6-4-6-7-4-6-7-7-6-4-6-|
----------------------------------|----------------------------------|
----------------------------------|----------------------------------|
----------------------------------|----------------------------------|
----------------------------------|----------------------------------|
----------------------------------|----------------------------------|


--12-9-11-12-12-11-9-11-12-9-11-12-12-11-9-11-|
----------------------------------------------|
----------------------------------------------|
----------------------------------------------|
----------------------------------------------|
----------------------------------------------|


--19--17-19-16-17-14-16----14-------------------|
------------------------17----16-17----16----14-|
------------------------------------18----16----|
------------------------------------------------|
------------------------------------------------|
------------------------------------------------|

1:52

--12-9-11-12-12-11-9-11-12-9-11-12-14--12-14-|
---------------------------------------------|
---------------------------------------------|
---------------------------------------------|
---------------------------------------------|
---------------------------------------------|


 
--12-9-11-12-12-11-9-11-12-9-11-12-14-9-12-14-|
----------------------------------------------|
----------------------------------------------|
----------------------------------------------|
----------------------------------------------|
----------------------------------------------|

  
--16--14-16-16-14-16-15-16--15-16-17--16-17-|
--------------------------------------------|
--------------------------------------------|
--------------------------------------------|
--------------------------------------------|
--------------------------------------------|


--16--14-16-16-14-16-15-16--15-16-17--16-17-|
--------------------------------------------|
--------------------------------------------|
--------------------------------------------|
--------------------------------------------|
--------------------------------------------|

 1:58

--12-9-11-12-12-11-9-11-12-9-11-12-14--12-14-|
---------------------------------------------|
---------------------------------------------|
---------------------------------------------|
---------------------------------------------|
---------------------------------------------|

 
--12-9-11-12-12-11-9-11-12-9-11-12-14--12-14-|
---------------------------------------------|
---------------------------------------------|
---------------------------------------------|
---------------------------------------------|
---------------------------------------------|

 
--16--14-16-16--14-16-17--14-16-16--14-16-|
------------------------------------------|
------------------------------------------|
------------------------------------------|
------------------------------------------|
------------------------------------------|

                                             2:04
--19--17-19-16-17-14-16----14-------------------|--------|
------------------------17----16-17----16----14-|--------|
------------------------------------18----16----|--------|
------------------------------------------------|--------|
------------------------------------------------|--------|
------------------------------------------------|--------|


                     2:06
-------------------|-------------------------|----------|
-------------------|-------------------------|----------|
-------------------|-------------------------|----------|
-------------------|--------9----13----18----|----------|
-------------------|--11---------------------|----------|
-------------------|-------------------------|----------|

  2:09                                           2:12
-----------------------------|-----|------------------------|
-----------------------------|-----|------------------------|
-----------------------------|-----|------------------------|
-----------------------19----|-----|--------14----16----18--|
--10g12----16----19----------|-----|--14--------------------|
-----------------------------|-----|------------------------|

                     2:15
--------------|--------------------------|-------------|
--------------|--------------------------|-------------|
--------------|--------------------------|-------------|
--------------|--13----16----13----------|-------------|
--------------|--------------------14----|-------------|
--------------|--------------------------|-------------|


  2:18                                         2:20
-------------------------|---------|-----------------------------|
-------------------------|---------|-----------------------------|
-------------------------|---------|-----------------------------|
--------9----13----18----|---------|-----------------------19----|
--11---------------------|---------|--10g12----16----19----------|
-------------------------|---------|-----------------------------|


                      2:24
-------------|--------------------------|--------------|
-------------|--------------------------|--------------|
-------------|--------------------------|--------------|
-------------|--------14----16----18----|--------------|
-------------|--14----------------------|--------------|
-------------|--------------------------|--------------|


  2:26
--------------------------|
--------------------------|
--------------------------|
--13----16----13----------|
--------------------14----|
--------------------------|



Coro
--------------------------|
--------------------------|
--6--6--6--6--6--6--6--6--|
--6--6--6--6--6--6--6--6--|
--4--4--4--4--4--4--4--4--|
--------------------------|  


--------------------------|--------------------------|
--------------------------|--------------------------|
--6--6--6--6--6--6--6--6--|--------------------------|
--6--6--6--6--6--6--6--6--|--7--7--7--7--7--7--7--7--|
--4--4--4--4--4--4--4--4--|--7--7--7--7--7--7--7--7--|
--------------------------|--5--5--5--5--5--5--5--5--|

 
--------------------------|--------------------------|
--------------------------|--------------------------|
--------------------------|--9--9--9--9--9--9--9--9--|
--7--7--7--7--7--7--7--7--|--9--9--9--9--9--9--9--9--|
--7--7--7--7--7--7--7--7--|--7--7--7--7--7--7--7--7--|
--5--5--5--5--5--5--5--5--|--------------------------|


   
--------------------------|--------------------------|
--------------------------|--------------------------|
--9--9--9--9--9--9--9--9--|--------------------------|
--9--9--9--9--9--9--9--9--|--9--9--9--9--9--9--9--9--|
--7--7--7--7--7--7--7--7--|--9--9--9--9--9--9--9--9--|
--------------------------|--7--7--7--7--7--7--7--7--|

  
----------------------------------|--------------------------|
----------------------------------|--------------------------|
----------------------------------|--6--6--6--6--6--6--6--6--|
--10--10--10--10--10--10--10--10--|--6--6--6--6--6--6--6--6--|
--10--10--10--10--10--10--10--10--|--4--4--4--4--4--4--4--4--|
---8---8---8---8---8---8---8---8--|--------------------------|

  
--------------------------|--------------------------|
--------------------------|--------------------------|
--6--6--6--6--6--6--6--6--|--------------------------|
--6--6--6--6--6--6--6--6--|--7--7--7--7--7--7--7--7--|
--4--4--4--4--4--4--4--4--|--7--7--7--7--7--7--7--7--|
--------------------------|--5--5--5--5--5--5--5--5--|

   
--------------------------|--------------------------|
--------------------------|--------------------------|
--------------------------|--9--9--9--9--9--9--9--9--|
--7--7--7--7--7--7--7--7--|--9--9--9--9--9--9--9--9--|
--7--7--7--7--7--7--7--7--|--7--7--7--7--7--7--7--7--|
--5--5--5--5--5--5--5--5--|--------------------------|


--------------------------|--------------------------|
--------------------------|--------------------------|
--9--9--9--9--9--9--9--9--|--------------------------|
--9--9--9--9--9--9--9--9--|--9--9--9--9--9--9--9--9--|
--7--7--7--7--7--7--7--7--|--9--9--9--9--9--9--9--9--|
--------------------------|--7--7--7--7--7--7--7--7--|


                                    2:52
----------------------------------|--------------------------|
----------------------------------|--------------------------|
----------------------------------|--6--6-----6--6--6-----6--|
--10--10--10--10--10--10--10--10--|--6--6-----6--6--6-----6--|
--10--10--10--10--10--10--10--10--|--4--4-----4--4--4-----4--|
---8---8---8---8---8---8---8---8--|--------------------------|

 
--------------------------|--------------------------|
--------------------------|--------------------------|
--6--6-----6--6--6-----6--|--------------------------|
--6--6-----6--6--6-----6--|--7--7-----7--7--7-----7--|
--4--4-----4--4--4-----4--|--7--7-----7--7--7-----7--|
--------------------------|--5--5-----5--5--5-----5--|
  
--------------------------|--------------------------|
--------------------------|--------------------------|
--------------------------|--9--9-----9--9--9-----9--|
--7--7-----7--7--7-----7--|--9--9-----9--9--9-----9--|
--7--7-----7--7--7-----7--|--7--7-----7--7--7-----7--|
--5--5-----5--5--5-----5--|--------------------------|

  
--------------------------|--------------------------|
--------------------------|--------------------------|
--9--9-----9--9--9-----9--|--------------------------|
--9--9-----9--9--9-----9--|--9--9-----9--9--9-----9--|
--7--7-----7--7--7-----7--|--9--9-----9--9--9-----9--|
--------------------------|--7--7-----7--7--7-----7--|


  
--------------------------------|--------------------------|
--------------------------------|--------------------------|
--------------------------------|--6--6--6--6--6--6--6--6--|
--10--10-----10--10--10-----10--|--6--6--6--6--6--6--6--6--|
--10--10-----10--10--10-----10--|--4--4--4--4--4--4--4--4--|
---8---8------8---8---8------8--|--------------------------|

  
--------------------------|--------------------------|
--------------------------|--------------------------|
--6--6--6--6--6--6--6--6--|--------------------------|
--6--6--6--6--6--6--6--6--|--7--7--7--7--7--7--7--7--|
--4--4--4--4--4--4--4--4--|--7--7--7--7--7--7--7--7--|
--------------------------|--5--5--5--5--5--5--5--5--|

  
--------------------------|--------------------------|
--------------------------|--------------------------|
--------------------------|--9--9--9--9--9--9--9--9--|
--7--7--7--7--7--7--7--7--|--9--9--9--9--9--9--9--9--|
--7--7--7--7--7--7--7--7--|--7--7--7--7--7--7--7--7--|
--5--5--5--5--5--5--5--5--|--------------------------|


  
--------------------------|--------------------------|
--------------------------|--------------------------|
--9--9--9--9--9--9--9--9--|--------------------------|
--9--9--9--9--9--9--9--9--|--9--9--9--9--9--9--9--9--|
--7--7--7--7--7--7--7--7--|--9--9--9--9--9--9--9--9--|
--------------------------|--7--7--7--7--7--7--7--7--|

    
----------------------------------||
----------------------------------||
----------------------------------||
--10--10--10--10--10--10--10--10--||
--10--10--10--10--10--10--10--10--||
---8---8---8---8---8---8---8---8--||

Fuente: tusacordes.com