a b c d e f g h i j k l m n o p q r s t u v w x y z 0-9

Maracas

Panda

			
bueno ... les voy a poner el solo de la cancion .... ah!!! helmuth .. si estas viendo esto espero que te lo aprendas ok??? 

e ------------------------5-----5-----5------------------------
b --------------------5p7---5p7---5p7---7-5--------------------
g -5p7-7-7--7p9-9-9-7---------------------------7------7-----7-
d ------------------------------------------7p9----7p9---7p9---
a -------------------------------------------------------------
e -------------------------------------------------------------

e --------------------------------------U
b --------------------------------------U
g -9-11-9-7-7---------------------------U
d --------------------------------------U
a --------------------------------------U
e --------------------------------------U

Fuente: tusacordes.com