a b c d e f g h i j k l m n o p q r s t u v w x y z 0-9

Maracas

Panda

			
____________________________________________________________________________________________________________________________
IntRo
G|-------------------------------------------------------------------------------------------------------------------------|
D|---2-3-----2-3----2-3-----2-3--------------------------------------------------------------------------------------------|
A|-4-------4------4-------4------------------------------------------------------------------------------------------------|
E|-------------------------------------------------------------------------------------------------------------------------|
____________________________________________________________________________________________________________________________

les voy a contar la historia 
de dos muchachos que en su juventud
solian llevarle serenata a la misma chica
el tiempo los separo y fue tambien el tiempo
quien se encargo de reunirlos otra vez
y esto fue lo que sucedio en el reencuentro
_____________________________________________________________________________________________________________________________

VerSo
G|--------------------------------------------------------------------------------------------------------------------------|
D|--------------------------------------------------------------------------------------------------------------------------|
A|--4-4-4-4-4-4-4-4------------------4-1-----------4---4-4-4-4-4-4-4-4------------------4-1------------4--------------------|
E|------------------4-4-4-4--2-2-2-2--4-4-2-2-4-4-4--------------------4-4-4-4--2-2-2-2--4-4-2-2-4-4-4----------------------|
_____________________________________________________________________________________________________________________________

amigo ven te invito una copa no tomo gracias
no tomas bien te invito un cafe bueno
yo quiero recordar la epoca loca
de ayer cuando teniamos 16

bien dime que ha pasado con tu esposa mm nos divorciamos
seguro te dejo por serle infiel
recuerdas que yo le mandaba roosas
pero la conquisto mas tu clavel
_____________________________________________________________________________________________________________________________

cORo
G|--------------------------------------------------------------------------------------------------------------------------|
D|--------------------------------------------------------------------------------------------------------------------------|
A|-------------------4-4-4----------------------4-4-4----------------------4-1-----4-4-4------------------------------------|
E|--2-2-2-2--4-4-4-4--4-4-4-2--2-2-2-2--4-4-4-4--4-4-4-2--2-2-2-2--4-4-4-4--4-4-2---4-4-4-2---------------------------------|
_____________________________________________________________________________________________________________________________

llevamos juntos serenata
juntos hacia el balcon aquel
tu la guitarra y yo maracas
ella 15 y nosotros 16

llevamos juntos serenata
juntos hacia el balcon aquel
yo la guitarra y tu maracas
ella 15 y nosotros 16
_____________________________________________________________________________________________________________________________

SolO gUitARRa
G|--------------------------------------------------------------------------------------------------------------------------|
D|--------------------------------------------------------------------------------------------------------------------------|
A|-------------------4-4-4----------------------4-4-------------------------------------------------------------------------|
E|--2-2-2-2--4-4-4-4--4-4-4-2--2-2-2-2--4-4-4-4--4--------------------------------------------------------------------------|
_____________________________________________________________________________________________________________________________

VerSo
G|--------------------------------------------------------------------------------------------------------------------------|
D|--------------------------------------------------------------------------------------------------------------------------|
A|--4-4-4-4-4-4-4-4------------------4-1------------4-4---------------------------------------------------------------------|
E|------------------4-4-4-4--2-2-2-2--4-4-2-2-4-4-4-------------------------------------------------------------------------|
_____________________________________________________________________________________________________________________________

solo por ser mi amigo te confieso que pasa
me divorcie mas nunca la olvide mmm
extraño su mirar sueño el regreso
le amo mas que cuando me case
_____________________________________________________________________________________________________________________________

cORo
G|--------------------------------------------------------------------------------------------------------------------------|
D|--------------------------------------------------------------------------------------------------------------------------|
A|-------------------4-4-4----------------------4-4-4----------------------4-1---4------------------------4-4-4-------------|
E|--2-2-2-2--4-4-4-4--4-4-4-2--2-2-2-2--4-4-4-4--4-4-4-2--2-2-2-2--4-4-4-4--4-4-2---4-2--2-2-2-2--4-4-4-4--4-4-4-2----------|

G|--------------------------------------------------------------------------------------------------------------------------|
D|--------------------------------------------------------------------------------------------------------------------------|
A|-------------------4-4-4----------------------4-4-4----------------------4-1---4------------------------4-4-4-------------|
E|--2-2-2-2--4-4-4-4--4-4-4-2--2-2-2-2--4-4-4-4--4-4-4-2--2-2-2-2--4-4-4-4--4-4-2-----2--2-2-2-2--4-4-4-4--4-4-4-2----------|
_____________________________________________________________________________________________________________________________

llevemos juntos serenata  no no tiene caso
esto no deben de saber
yo la guitarra y tu maracas
conquistala, amala 
como cuando teniamos 16

llevamos juntos serenata vamos
juntos hasta el balcon aquel
tu la guitarra y yo maracas
conquistala, amala
como cuando teniamos 16
_____________________________________________________________________________________________________________________________
OutrO
G|--------------------------------------------------------------------------------------------------------------------------|
D|--------------------------------------------------------------------------------------------------------------------------|
A|-------------------4-4-4----------------------4-4-4---------4-------------------------------------------------------------|
E|--2-2-2-2--4-4-4-4--4-4-4-2--2-2-2-2--4-4-4-4--4-4-4-2--2-4---------------------------------------------------------------|
_____________________________________________________________________________________________________________________________

como cuando teniamos 16...

Fuente: tusacordes.com