a b c d e f g h i j k l m n o p q r s t u v w x y z 0-9

Mala Suerte

Panda

			
acepten sta rola q sta completa le aunmento el solo que lleva
tanto de la guitarra como dl acordeon, ad+ en el coro,le aumente
unos acordes q no staban y q suenan mejor, chekenla
guitarra hace este ligado C#/B/A#m, de manera rapida, spero le
ayen, si no ps tokenlo como sta, el solo es 100 correcto, sta
rola se la dedico a

                    "GRISELDA MARQUEZ PASCUAL"

nomas x q le laten estos weyes, aparte jaja se equipara con
algo q sucediio jajajaja, bueno cha es muxo choro, venga........

nota:

* = significa q el sonido se alarga, solo chekenlo


F#                    G#m
Me enamore de una lesbiana
          B          C#
y ella rompio mi corazon
       A#m           B
una de esas que  no come
        A#m           G#m         F# - F - F#
ella prefiere a las mujeres que a mi

F#                    G#m
Me enamore de una lesbiana
        B          C#  C#/B/A#m
y yo mujer nunca sere
     A#m         B
pues ella no me pela
        A#m               G#m          F# - F - F#
aparte creo que ella se enamoro de un gay

     B         F#
Y yo hago lo posible
      B             F#
para que se fije en mi
     B          F#
pero ella no responde
         G#m             C#
mi mala suerte ha de seguir

         F#              G#m
Yo le mande un ramo de flores
     B           C#
pero ella las tiró
         A#m            B
creo que no le gustan flores
        A#m          G#m           F# - F - F#
ella prefiere los dildos de plastico

     B         F#
Y yo hago lo posible
      B             F#
para que se fije en mi
     B          F#
pero ella no responde
         G#m             C#
mi mala suerte ha de seguir

puente
F# - G#m - B - C# - A#m - B - A#m - G#m - F# - F - F#
solo:

A---------------------------------------------------------
D---------------------------------------------------------
G-----13*---------13---------------------------10*-11*----
B-11*-----12*-14*----11-12-14*-----14*-12*-11*------------
e------------------------------11*------------------------


     B         F#
Y yo hago lo posible
      B             F#
para que se fije en mi
     B          F#
pero ella no responde
         G#m             C#    F#
mi mala suerte ha de seguir




solo 2, es opcional, la guitarra y el acordeon juntos

A------------------------------------------------------------
D------------------------------------------------------------
G-----13*---------13-----------------------------------------
B-11*-----12*-14*----11-12-14--14-11-12-12--------14-12-11---
e------------------------------------------11---11-----------


A---------------
D---------------
G---------13----
B-14-12-11------
e---------------Fuente: Tus acordes