a b c d e f g h i j k l m n o p q r s t u v w x y z 0-9

Los Malaventuraos No Lloran

Panda

			
Afincación en Bemol Medio tono abajo.

Carnales para que toquen mas chingona la rola,
necesitas ponerle a tu guitarra el tremolo,
que es un fierrito que va a un lado de las
cuerdas ya lo han de conocer, para hacer el 
efecto de vibrato.

NOTA: cuando aparezca el signo de ~  es cuando
tienes que hacer el vibrato con el tremolo.
Chequen la rola para que vean bien, si tienen dudas.
Los Pre-coros y lo Coros van con una distorción
pesada, los versos y el intro van con una distorción
acústica.


Intro:


AQUI LES DOY EL ACORDE COMPLETO PERO CHEQUEN EL
RASGUEO, PUEDE SER DE ARRIBA HACIA ABAJO
DE LA CUERDA 6 A LA CUERDA 1 O DE ABAJO HACIA ARRIBA,
DE LA 1 CUERDA A LA 6 CUERDA ESCUCHEN LA ROLA Y VEAN
HACIA DONDE VA EL RASGUEO.


Eb|---5~~---7~~----4~~-|----------------------|
Bb|---5~~---7~~----4~~-|---5-----5---4--------|
Gb|---6~~---8~~----4~~-|-----6---------5---5--|
Db|---7~~---9~~----4~~-|-------7---------4----|
Ab|---7~~---9~~----4~~-|----------------------|
Eb|---5~~---7~~--------|----------------------|




Verso:

     Se que esta en...
Eb|------------------------------4~--|---------------------|
Bb|-------5------------9---------4~--|--5-----5---4--------|
Gb|-----6---6--------9---9-------4~--|----6---------5---5--|
Db|-----------7~-----------9~----4~--|------7---------4----|
Ab|---7------------0-------------4~--|---------------------|
Eb|----------------------------------|---------------------|



     Encontrar el medio...
Eb|--------5---------------------4~--|---------------------|
Bb|------5---5---------9---------4~--|--5-----5---4--------|
Gb|------------6~----9---9-------4~--|----6---------5---5--|
Db|---7--------------------9~----4~--|------7---------4----|
Ab|----------------0-------------4~--|---------------------|
Eb|----------------------------------|---------------------|








Pre-coro:

      Que aqui todo...
Eb|-----------------------------------------------------------------|
Bb|-----------------------------------------------------------------|
Gb|-----------------------------------------------------------------|
Db|-----------------9-9-9-9-9-9-9-9-----------------6-6-6-6-4-4-4-4-|
Ab|-7-7-7-7-7-7-7-7-7-7-7-7-7-7-7-7-6-6-6-6-6-6-6-6-4-4-4-4-2-2-2-2-|
Eb|-5-5-5-5-5-5-5-5-----------------4-4-4-4-4-4-4-4-----------------|







Coro:

       Le quiero platicar...
Eb|------------------------------------------------------------------
Bb|------------------------------------------------------------------
Gb|------------------------------------------------------------------
Db|----------------------9x--9-9-9--9x--9-9-9------------------------
Ab|7x--7-7-7--7x--7-7-7--7x--7-7-7--7x--9-9-9--6x--6-6-6---6x--6-6-6-
Eb|5x--5-5-5--5x--5-5-5------------------------4x--4-4-4---4x--4-4-4-

--------------------------|
--------------------------|
--------------------------|
---6x--6-6-6---4x--4-4-4--|
---4x--4-4-4---2x--2-2-2--|
--------------------------|





IGUAL QUE EN EL INTRO CHEQUEN LA FORMA DE RASGUEO,
COMO YA SE LOS HABIA MENCIONADO, EL RASGUEO PUEDE
SER DE ARRIBA HACIA ABAJO O DE ABAJO HACIA ARRIBA,
CHEQUENLO BIEN CARNALES.



Verso:

Eb|---5~-----7~----4~~-|----------------------|
Bb|---5~-----7~----4~~-|---5-----5---4--------|
Gb|---6~-----8~----4~~-|-----6---------5---5--|
Db|---7~-----9~----4~~-|-------7---------4----|
Ab|---7~-----9~----4~~-|----------------------|
Eb|---5~-----7~--------|----------------------|




       Se que ella...
Eb|--------5---------------------4~--|---------------------|
Bb|------5---5---------9---------4~--|--5-----5---4--------|
Gb|------------6~----9---9-------4~--|----6---------5---5--|
Db|---7--------------------9~----4~--|------7---------4----|
Ab|----------------0-------------4~--|---------------------|
Eb|----------------------------------|---------------------|





      El utilizar el medio...
Eb|--------5---------------------4~--|---------------------|
Bb|------5---5--------9----------4~--|--5-----5---4--------|
Gb|------------6~----9---9-------4~--|----6---------5---5--|
Db|---7--------------------9~----4~--|------7---------4----|
Ab|---------------0--------------4~--|---------------------|
Eb|----------------------------------|---------------------|









Pre-coro:

     Y decir que todo...
Eb|-----------------------------------------------------------------|
Bb|-----------------------------------------------------------------|
Gb|-----------------------------------------------------------------|
Db|-----------------9-9-9-9-9-9-9-9-----------------6-6-6-6-4-4-4-4-|
Ab|-7-7-7-7-7-7-7-7-7-7-7-7-7-7-7-7-6-6-6-6-6-6-6-6-4-4-4-4-2-2-2-2-|
Eb|-5-5-5-5-5-5-5-5-----------------4-4-4-4-4-4-4-4-----------------|






Coro:

       Yo quiero abrazar...
Eb|------------------------------------------------------------------
Bb|------------------------------------------------------------------
Gb|------------------------------------------------------------------
Db|----------------------9x--9-9-9--9x--9-9-9------------------------
Ab|7x--7-7-7--7x--7-7-7--7x--7-7-7--7x--9-9-9--6x--6-6-6---6x--6-6-6-
Eb|5x--5-5-5--5x--5-5-5------------------------4x--4-4-4---4x--4-4-4-

--------------------------|
--------------------------|
--------------------------|
---6x--6-6-6---4x--4-4-4--|
---4x--4-4-4---2x--2-2-2--|
--------------------------|








Caranales, en esta parte va a dos guitarras, hay que estar bien
puestos con los jodidos tiempos... sacando los tiempos bien la
rola sale muy facilmente.



Coro:

       Me deberia de acordar...
Eb|------------------------------------------------------------------
Bb|------------------------------------------------------------------
Gb|------------------------------------------------------------------
Db|----------------------9x--9-9-9--9x--9-9-9------------------------
Ab|7x--7-7-7--7x--7-7-7--7x--7-7-7--7x--9-9-9--6x--6-6-6---6x--6-6-6-
Eb|5x--5-5-5--5x--5-5-5------------------------4x--4-4-4---4x--4-4-4-

--------------------------|
--------------------------|
--------------------------|
---6x--6-6-6---4x--4-4-4--|
---4x--4-4-4---2x--2-2-2--|
--------------------------|



     La deberia de odiar...
Eb|------------------------------------------------------------------
Bb|------------------------------------------------------------------
Gb|------------------------------------------------------------------
Db|----------------------9x--9-9-9--9x--9-9-9------------------------
Ab|7x--7-7-7--7x--7-7-7--7x--7-7-7--7x--9-9-9--6x--6-6-6---6x--6-6-6-
Eb|5x--5-5-5--5x--5-5-5------------------------4x--4-4-4---4x--4-4-4-

--------------------------|
--------------------------|
--------------------------|
---6x--6-6-6---4x--4-4-4--|
---4x--4-4-4---2x--2-2-2--|
--------------------------|



Solo:


      Esto va con distorción pesada
Eb|----------------------------------------|
Bb|----------------------------------------|
Gb|----------------------9--6-8-9---8-9-8--|
Db|---6--8-9---10--11----------------------| x2 2 veces
Ab|----------------------------------------|
Eb|----------------------------------------|



      Esto se toca con el solo y va con
        la distorción acústica
Eb|--------------|------5------|-------------|-------------------|
Bb|-------5------|----5---5----|------9------|-5-----5---4-------|
Gb|-----6---6----|----------6--|----9---9----|---6---------5---5-|
Db|-----------7--|--7----------|----------9--|-----7---------4---|
Ab|---7----------|-------------|--9----------|-------------------|
Eb|--------------|-------------|-------------|-------------------|







ESTA PARTE VA MUTEADA, PARA QUE CHEQUEN BIEN LOS TIEMPOS
POR QUE VA RAPIDILLO.


Pre-coro:

         Quiero encontrar el...
Eb|---------------------------------------------------------------------|
Bb|---------------------------------------------------------------------|
Gb|---------------------------------------------------------------------|
Db|-----------------9999999999999999------------------66666666-44444444-|
Ab|7777777777777777-7777777777777777-6666666666666666-44444444-22222222-|
Eb|5555555555555555------------------4444444444444444-------------------|





Coro:

      Que aqui todo...
Eb|---------------------------------------------------------------------
Bb|---------------------------------------------------------------------
Gb|---------------------------------------------------------------------
Db|-----------------------9x--9-9-9---9x--9-9-9-------------------------
Ab|-7x--7-7-7--7x--7-7-7--7x--7-7-7---7x--9-9-9---6x--6-6-6---6x--6-6-6-
Eb|-5x--5-5-5--5x--5-5-5--------------------------4x--4-4-4---4x--4-4-4-

--------------------------|
--------------------------|
--------------------------|
---6x--6-6-6---4x--4-4-4--|
---4x--4-4-4---2x--2-2-2--|
--------------------------|






      Le quiero saludar...
Eb|------------------------------------------------------------------------
Bb|------------------------------------------------------------------------
Gb|------------------------------------------------------------------------
Db|--------------------------9x--9-9-9---9x--9-9-9-------------------------
Ab|---7x--7-7-7---7x--7-7-7--7x--7-7-7---7x--9-9-9---6x--6-6-6---6x--6-6-6-
Eb|---5x--5-5-5---5x--5-5-5--------------------------4x--4-4-4---4x--4-4-4-

--------------------------|
--------------------------|
--------------------------|
---6x--6-6-6---4x--4-4-4--|
---4x--4-4-4---2x--2-2-2--|
--------------------------|






          Aqui termina la rola
Eb|---------------------------------------|
Bb|---------------------------------------|
Gb|---------------------------------------|
Db|--------------------9x-9x--9-9-9-9-----|
Ab|--7x-7x--7-7-7-7-7--7x-7x--7-7-7-7--4--|
Eb|--5x-5x--5-5-5-5-5------------------2--|

Fuente: tusacordes.com