a b c d e f g h i j k l m n o p q r s t u v w x y z 0-9

Los Malaventurados No Lloran

Panda

D#
F#
C#
G#
			
Ritmo : Happy Punk

Afinacion
1a------ RE#  D#
2a------ LA#  A#
3a------ FA#  F#
4a------ DO#  C#
5a------ SOL# G#
6a------ RE#  D#

1/2 Tono Abajo

Voten y comenten, fue mucho trabajo, ¡ Gracias !





                                                     T4
|----|-----|----|  |----|-----|-----|  |-----|----|--1--|
|----|-----|----|  |----|--2--|-----|  |--3--|----|--1--|
|----|--1--|----|  |----|--3--|-----|  |--4--|----|--1--|
|----|--2--|----|  |----|-----|--1--|  |-----|----|--1--|
|----|--3--|----|  |----|-----|-----|  |-----|----|--1--|
|----|-----|----|  |----|-----|-----|  |-----|----|--1--|
        A                  E                   G#m
     La mayor           Mi mayor       Sol sostenido menor




               T4                  T2                  T2
|-----|-----|--1--|  |-----|----|--1--|  |-----|----|--1--|
|-----|-----|--1--|  |-----|----|--1--|  |--3--|----|--1--|
|--3--|-----|--1--|  |--2--|----|--1--|  |--4--|----|--1--|
|--4--|-----|--1--|  |--3--|----|--1--|  |-----|----|--1--|
|-----|--2--|--1--|  |--4--|----|--1--|  |-----|----|--1--|
|-----|-----|--1--|  |-----|----|--1--|  |-----|----|--1--|
        C#m                   B                  F#m
Do sostenido menor         Si mayor      Fa sostenido menor









INTRODUCCION
D#---0---|---4---|---4---|-0-----0----------|
A#---2---|---5---|---4---|---2-----4--------|
F#---2---|---4---|---4---|-----1-----4---4--|
C#---2---|-------|-------|-------------4----|
G#---0---|-------|-------|------------------|
D#-------|-------|-------|------------------|


RIFF 1
D#-------5-------|-------4-------|---4---|-------------
A#-----5---5-----|-----5---5-----|---4---|---5-----5---
F#---6-------6---|---4-------4---|---4---|-----6-------
C#---------------|---------------|---6---|-------6-----
G#---------------|---------------|---6---|-------------
D#---------------|---------------|-------|-------------

 |-------------|
 |---4---------|
 |-----4---4---|
 |-------6-----|
 |-------------|
 |-------------|


 A                           E
Se que esta en algun lugar mejor
               G#m
donde no hay abuso
               C#m    B
fuera de este mundo
            A                  E
quiero encontrar el medio para yo
                 G#m                 C#m 
poder hablar con ella, por decirle a ella.


RIFF 2

D#---------------------------|--------------------------
A#---------------------------|--------------------------
F#---------------------------|--9--9--9--9--9--9--9--9--
C#---7--7--7--7--7--7--7--7--|--9--9--9--9--9--9--9--9--
G#---7--7--7--7--7--7--7--7--|--7--7--7--7--7--7--7--7--
D#---5--5--5--5--5--5--5--5--|--------------------------

 |--------------------------|--------------|--------------|
 |--------------------------|--------------|--------------|
 |--------------------------|--6--6--6--6--|--------------|
 |--6--6--6--6--6--6--6--6--|--6--6--6--6--|--9--9--9--9--|
 |--6--6--6--6--6--6--6--6--|--4--4--4--4--|--9--9--9--9--|
 |--4--4--4--4--4--4--4--4--|--------------|--7--7--7--7--|

 aqui va con ritmo 
 |---------------------------|--------------------------
 |---------------------------|--------------------------
 |---------------------------|--9--9--9--9--9--9--9--9--
 |---7--7--7--7--7--7--7--7--|--9--9--9--9--9--9--9--9--
 |---7--7--7--7--7--7--7--7--|--7--7--7--7--7--7--7--7--
 |---5--5--5--5--5--5--5--5--|--------------------------

 |--------------------------|--------------|--------------|
 |--------------------------|--------------|--------------|
 |--------------------------|--6--6--6--6--|--------------|
 |--6--6--6--6--6--6--6--6--|--6--6--6--6--|--9--9--9--9--|
 |--6--6--6--6--6--6--6--6--|--4--4--4--4--|--9--9--9--9--|
 |--4--4--4--4--4--4--4--4--|--------------|--7--7--7--7--|


 B   A              E
Que aqui todo esta peor
                 G#m
que al igual que ella
               C#m
mi voluntad tambien murio
      B        A
le quiero platicar 
               E
que todo sale mal
                 G#m
que yo la alcanzaria 
                    C#m   B
teniendo la oportunidad


INTRODUCCION
D#---0---|---4---|---4---|-0-----0----------|
A#---2---|---5---|---4---|---2-----4--------|
F#---2---|---4---|---4---|-----1-----4---4--|
C#---2---|-------|-------|-------------4----|
G#---0---|-------|-------|------------------|
D#-------|-------|-------|------------------|


RIFF 1
D#-------5-------|-------4-------|---4---|-------------
A#-----5---5-----|-----5---5-----|---4---|---5-----5---
F#---6-------6---|---4-------4---|---4---|-----6-------
C#---------------|---------------|---6---|-------6-----
G#---------------|---------------|---6---|-------------
D#---------------|---------------|-------|-------------

 |-------------|
 |---4---------|
 |-----4---4---|
 |-------6-----|
 |-------------|
 |-------------|


 A                      E
Se que ella se siente mejor
                 G#m
haya no hay suplicio
                  C#m    B
seria muy impulsivo
         A                 E
el utilizar un medio y llegar
              G#m
a lo desconocido
                  C#m
sentirla al lado mio


RIFF 2

D#---------------------------|--------------------------
A#---------------------------|--------------------------
F#---------------------------|--9--9--9--9--9--9--9--9--
C#---7--7--7--7--7--7--7--7--|--9--9--9--9--9--9--9--9--
G#---7--7--7--7--7--7--7--7--|--7--7--7--7--7--7--7--7--
D#---5--5--5--5--5--5--5--5--|--------------------------

 |--------------------------|--------------|--------------|
 |--------------------------|--------------|--------------|
 |--------------------------|--6--6--6--6--|--------------|
 |--6--6--6--6--6--6--6--6--|--6--6--6--6--|--9--9--9--9--|
 |--6--6--6--6--6--6--6--6--|--4--4--4--4--|--9--9--9--9--|
 |--4--4--4--4--4--4--4--4--|--------------|--7--7--7--7--|

 y vuelve con ritmo 
 |---------------------------|--------------------------
 |---------------------------|--------------------------
 |---------------------------|--9--9--9--9--9--9--9--9--
 |---7--7--7--7--7--7--7--7--|--9--9--9--9--9--9--9--9--
 |---7--7--7--7--7--7--7--7--|--7--7--7--7--7--7--7--7--
 |---5--5--5--5--5--5--5--5--|--------------------------

 |--------------------------|--------------|--------------|
 |--------------------------|--------------|--------------|
 |--------------------------|--6--6--6--6--|--------------|
 |--6--6--6--6--6--6--6--6--|--6--6--6--6--|--9--9--9--9--|
 |--6--6--6--6--6--6--6--6--|--4--4--4--4--|--9--9--9--9--|
 |--4--4--4--4--4--4--4--4--|--------------|--7--7--7--7--|



B  A                   E
Y decir que todo esta peor
                  G#m
que al igual que ella
                      C#m
mi esperanza se murio
      B         A
la quiero abrazar
                E
que todo sea igual
                    G#m
mi vida ya es tan gris
           C#m               B
que el dolor jamas se marchara


RIFF 3

D#-------------------|----------------------|-------------------
A#-------------------|----------------------|-------------------
F#-------------------|----------------------|-------------------
C#--------7----7--7--|--------7----------7--|--------2----2--2--
G#--7--7--7----7--7--|--7--7--7----7--7--7--|--2--2--2----2--2--
D#--5--5--5----5--5--|--5--5--5----5--5--5--|--0--0--0----0--0--

 |----------------------
 |----------------------
 |----------------------
 |--------2----------2--
 |--2--2--2----2--2--2--
 |--0--0--0----0--0--0--

 |-------------------|----------------------|-------------------
 |-------------------|----------------------|-------------------
 |-------------------|----------------------|--------4----4--4--
 |--------4----4--4--|--------4----------4--|--4--4--4----4--4--
 |--4--4--4----4--4--|--4--4--4----4--4--4--|--2--2--2----2--2--
 |--2--2--2----2--2--|--2--2--2----2--2--2--|-------------------

 |----------------------
 |----------------------
 |--------4----------4--
 |--4--4--4----4--4--4--
 |--2--2--2----2--2--2--
 |----------------------

-------------------|----------------------|-------------------
-------------------|----------------------|-------------------
-------------------|----------------------|-------------------
--------7----7--7--|--------7----------7--|--------2----2--2--
--7--7--7----7--7--|--7--7--7----7--7--7--|--2--2--2----2--2--
--5--5--5----5--5--|--5--5--5----5--5--5--|--0--0--0----0--0--

 |----------------------
 |----------------------
 |----------------------
 |--------2----------2--
 |--2--2--2----2--2--2--
 |--0--0--0----0--0--0--

 |-------------------|----------------------|-------------------
 |-------------------|----------------------|-------------------
 |-------------------|----------------------|--------6----6--6--
 |--------4----4--4--|--------4----------4--|--6--6--6----6--6--
 |--4--4--4----4--4--|--4--4--4----4--4--4--|--4--4--4----4--4--
 |--2--2--2----2--2--|--2--2--2----2--2--2--|-------------------

 |----------------------
 |----------------------
 |--------4----------4--
 |--4--4--4----4--4--4--
 |--2--2--2----2--2--2--
 |----------------------

 
 A
Me deberia recordar
               E
debo yo recordar

y sentirse mejor
              F#m
es mejor no creer en el amor
                    B
asi como le hago yo
 A
la deberia de odiar
               E
por dejarme aqui
      
pero ella no escogio
               F#m
soy un simple amante loco yo
                     B
he aprendido mi leccion


SOLO

D#-----|--------|-----|------------|----------|------|--------------|
A#-----|--------|-----|------------|----------|------|--------------|
F#-----|--------|-----|------------|----------|------|--------------|
C#-----|--------|--6--|--7--9--13--|--11--13--|--14--|--13--14--13--|
G#--7--|--4--7--|-----|------------|----------|------|--------------|
D#-----|--------|-----|------------|----------|------|--------------|

D#-----|--------|-----|------------|----------|------|--------------|
A#-----|--------|-----|------------|----------|------|--------------|
F#-----|--------|-----|------------|----------|------|--------------|
C#-----|--------|--6--|--7--9--13--|--11--13--|--14--|--13--14--13--|
G#--7--|--4--7--|-----|------------|----------|------|--------------|
D#-----|--------|-----|------------|----------|------|--------------|


RIFF 1
D#-------5-------|-------4-------|---4---|-------------
A#-----5---5-----|-----5---5-----|---4---|---5-----5---
F#---6-------6---|---4-------4---|---4---|-----6-------
C#---------------|---------------|---6---|-------6-----
G#---------------|---------------|---6---|-------------
D#---------------|---------------|-------|-------------

 |-------------|
 |---4---------|
 |-----4---4---|
 |-------6-----|
 |-------------|
 |-------------|


 A                            E
Se que esta en algun lugar mejor
               G#m
donde no hay abuso
               C#m   B
fuera de este mundo
  A                            E
quiero encontrar el medio para yo
                  G#m
poder hablar con ella
                 C#m
poder decirle a ella




RIFF 2  aqui todo va con ritmo 

D#---------------------------|--------------------------
A#---------------------------|--------------------------
F#---------------------------|--9--9--9--9--9--9--9--9--
C#---7--7--7--7--7--7--7--7--|--9--9--9--9--9--9--9--9--
G#---7--7--7--7--7--7--7--7--|--7--7--7--7--7--7--7--7--
D#---5--5--5--5--5--5--5--5--|--------------------------

 |--------------------------|--------------|--------------|
 |--------------------------|--------------|--------------|
 |--------------------------|--6--6--6--6--|--------------|
 |--6--6--6--6--6--6--6--6--|--6--6--6--6--|--9--9--9--9--|
 |--6--6--6--6--6--6--6--6--|--4--4--4--4--|--9--9--9--9--|
 |--4--4--4--4--4--4--4--4--|--------------|--7--7--7--7--|

 |---------------------------|--------------------------
 |---------------------------|--------------------------
 |---------------------------|--9--9--9--9--9--9--9--9--
 |---7--7--7--7--7--7--7--7--|--9--9--9--9--9--9--9--9--
 |---7--7--7--7--7--7--7--7--|--7--7--7--7--7--7--7--7--
 |---5--5--5--5--5--5--5--5--|--------------------------

 |--------------------------|--------------|--------------|
 |--------------------------|--------------|--------------|
 |--------------------------|--6--6--6--6--|--------------|
 |--6--6--6--6--6--6--6--6--|--6--6--6--6--|--9--9--9--9--|
 |--6--6--6--6--6--6--6--6--|--4--4--4--4--|--9--9--9--9--|
 |--4--4--4--4--4--4--4--4--|--------------|--7--7--7--7--|


 B     A             E
Que aqui todo esta peor
                  G#m
que al igual que ella
               C#m
mi voluntad tambien murio
     B         A
la quiero saludar
                E
a su oido suspirar
                 G#m
que mientras yo la extraño
                C#m   B
mi vida desvanece mas

FINAL

D#--------------------------|-----------------|
A#--------------------------|-----------------|
F#--------------------------|--9-9-9--9--9-9--|
C#--7-7-7--7--7-7-7--7-7-7--|--9-9-9--9--9-9--|
G#--7-7-7--7--7-7-7--7-7-7--|--7-7-7--7--7-7--|
D#--5-5-5--5--5-5-5--5-5-5--|-----------------|

Fuente: Tusacordes