a b c d e f g h i j k l m n o p q r s t u v w x y z 0-9

La Estrategia Perdida

Panda

			
Bueno pues primero que nada la afinación de los bajos y guitarras de panda
son en bemol osea medio tono abajo de la afinación normal ejemplo, E A D G
se cambian por D# C# G# F# espero y les guste ya que es mi primera rola que
subo.

INTRO
F#-------------------------------------------------------------------
G#-------------------------------------------------------------------x2
C#---------------------------------------------------44-444-4--------
D#-77-777-777-777-7-66-666-666-666-6-44-444-444-444-4--------22-222-2


VERSO1
F#--------------------------------------------------------------------
G#--------------------------------------------------------------------X2
C#-------------------6-6-66-0-6-0-6-666-4/124-------------------------
D#-7-7-77-0-7-0-7-777------------------4------4-44-444-0-0-000-2-22-222
YO NO ENTIENDO COMO EL SUBCONCIENTE...

VERSO2
F#------------------------------------------------------------------
G#----6--9--6--7--6----8--11--8--9--8-------------------------------
C#--77-77-77-77-77---99-99--99-99-99--------------------------------
D#-------------------------------------77-66-444-444----------------
Y SIGO PERDIENDO...

F#----------------------------11-10-8-------------------------------
G#----6--9--6--7--6----8--11---------11-10-8------------------------
C#--77-77-77-77-77---99-99--99--------------11-9--------------------
D#------------------------------------------------------------------
ASEGURE QUE NUNCA...

F#------------------------------
G#------------------------------
C#----4-6---6-4---4-6---111-----
D#-7-7---7-7---7-7---222--------

CORO
F#------------------------------------------------------------------
G#------------------------------------------------------------------x2
C#-------6x16-----------------------------------------------------
D#-7x16--------x-4x9-0-0-0-0-0-2-2-2-2-2------------------------
COMENTO QUE TODO EL TIEMPO...

INTRO X1

VERSO1 X2

ESTA PARTE QUE SIGUE VA SIN BAJO UN CACHO Y DE PUES ENTRA ASI

F#----------------------
G#----------------------
C#----------------------
D#-7-7--6-6—-4-4-4-4-4-4

Y LUEGO OTRA VEZ SIN BAJO Y ENTRA ASI

F#------------------------------
G#------------------------------
C#----4-6---6-4---4-6---111-----
D#-7-7---7-7---7-7---222--------

COROX2

F#-------------------------------------------------------------------
G#-------------------------------------------------------------------x2
C#-----------------66-666-666-666-6----------------------------------
D#-77-777-777-777-7----------------44-444-444-444-4-00-000-0-22-222-2

F#-------------------------------------------------------------------
G#-------------------------------------------------------------------x2
C#-----------------66-666-666-666-6----------------------------------
D#-77-777-777-777-7----------------44-444-444-444-4-00-000-0-22-222-2-0Fuente: Tus acordes