a b c d e f g h i j k l m n o p q r s t u v w x y z 0-9

La Estrategia Perdida

Panda

			
Autor: Panda
Tablatura hecha por: David escobar

Intro 

Guitarra 1 ARTURO

d#----------------------------19-19-18-18-16-16-16---------------
A#-16-16-16-17-17-17-14-14-14----------------------16-16--14x8-
F#---------------------------------------------------------------
C#---------------------------------------------------------------
G#---------------------------------------------------------------
D#---------------------------------------------------------------

d#---------------------------19-19-18-18-16-16--16-17--17-18--18-19h21-19
A#16-16-16-17-17-17-14-14-14------------------17-----18-----19-----------
F#-----------------------------------------------------------------------
C#-----------------------------------------------------------------------
G#-----------------------------------------------------------------------
D#-----------------------------------------------------------------------
Todo esto se repite 2 veces


Segunda guitarra
E|-----------------------------------------------|
B|-----------------------------------------------|
G|-------10--------6---9--------------------|
D|---9---8-----6---6---9----------------------| x2 chequeen los cambios
A|---9---9-----6---4---7---------------------|
E|---7---6-----4------------------------------|

Bajo
Yo no entiendo como el subconsciente aún recuerda las cosas que yo descarté 
Vas venciendo pero trataré, de alguna manera lo recordaré 


Y sigo perdiendo todos aquellos juegos que?..
E|----------------------------------|
B|----------------------------------|
G|----------------------------------|
D|--9?-13---11---------------------| x2 chequeen los cambios
A|--9--13---11-----------------|
E---7--11---9-----------------|

te aseguré que nunca que nunca volvería volvería a ceder 
E|---------------------------------------------------------|
B|---------------------------------------------10----------|
G|----------------------------------------11---10----------| chequeen los cambios
D|--9-9-11-13-9-9--13--11--9-9---11--13---11---8-----------|
A|--9-9-11-13-9-9--13--11--9-9---11--13---9----------------|
E---7-7-9--11-7-7--11--9---7-7---9---11--------------------|

Coro  chequeen los cambios y el ritmo
E|-------------|-|-----------------------------------------|
B|-------------|-|-----------------------------------------|
G|--------8-8--|-|-----------------------------------------| x2
D|--9-9---8-8--|6|--6-6---2-2---4-4------------------------|
A|--9-9---6-6--|6|--6-6---2-2---4-4------------------------|
E---7-7--------|4|--4-4---0-0---2-2------------------------|

Intermedio lo mismo del intro

Guitarra 1 ARTURO

d#----------------------------19-19-18-18-16-16-16---------------
A#-16-16-16-17-17-17-14-14-14----------------------16-16--14x8-
F#---------------------------------------------------------------
C#---------------------------------------------------------------
G#---------------------------------------------------------------
D#---------------------------------------------------------------

d#---------------------------19-19-18-18-16-16--16-17--17-18--18-19h21-19
A#16-16-16-17-17-17-14-14-14------------------17-----18-----19-----------
F#-----------------------------------------------------------------------
C#-----------------------------------------------------------------------
G#-----------------------------------------------------------------------
D#-----------------------------------------------------------------------


Segunda guitarra
E|-----------------------------------------------|
B|-----------------------------------------------|
G|-------10--------6---9--------------------|	
D|---9---8-----6---6---9----------------------| x1chequeen los cambios
A|---9---9-----6---4---7---------------------|
E|---7---6-----4------------------------------|

Luego va los mismo d los versos anteriores y el coro pero cuando empieza el segundo ?Comento que todo el tiempo? lo varían con los acordes y el ritmo del intro del intro 

Esta rola esta 99.9 exelent ojala q la disfruten
Saludos pa toa la raza q escucha a PaNdA!!!
Cualkier reclamo escríbanme a tankian_28@hotmail

Fuente: tusacordes.com