a b c d e f g h i j k l m n o p q r s t u v w x y z 0-9

La Celula Que Explota

Panda

			
***PRIMERA GUITARRA
Intro
E||-------5-------5---------3--|--------2----0----0----|--2-----------------|
B||--6s-7------7-------7s-5----|-----3-------2----2----|--3~----------------|
G||----------------------------|-----------------------|--4-----------------|
D||----------------------------|-----------------------|--4-----------------|
A||----------------------------|-----------------------|--2-----------------|
E||----------------------------|-----------------------|--------------------|


                                
-------------------|-------0-------2---------3--|-------------------|
-------------------|------------3-------3s-5----|-------------------|
-------------------|--4s-6----------------------|-------------------|
-------------------|----------------------------|-------------------|
-------------------|----------------------------|-------------------|
-------------------|----------------------------|-------------------|


   
-----------2----0----|---9----9----9---9-----7--7--|-----5--5----3-----5----|
-----------3----2----|--10---10---10--10s----8--8--|-----7--7----5s----7----|
---------------------|-----------------------------|------------------------|
---------------------|-----------------------------|------------------------|
---------------------|-----------------------------|------------------------|
---------------------|-----------------------------|------------------------|


   
--5---5---5--5s----3--3--|-----------------------|---9----9----9---9-----7--7--|
--7---7---7--7-----5--5--|-----7--7----5----5----|--10---10---10--10s----8--8--|
-------------------------|-----7--7----6----6----|-----------------------------|
-------------------------|-----------------------|-----------------------------|
-------------------------|-----------------------|-----------------------------|
-------------------------|-----------------------|-----------------------------|


    
-----5--5----3-----5----|--5--5----5--5----3--3--|--L--------2----0----|
-----7--7----5s----7----|--7--7----7--7----5--5--|--L--------3----2----|
------------------------|------------------------|---------------------|
------------------------|------------------------|---------------------|
------------------------|------------------------|---------------------|
------------------------|------------------------|---------------------|

Verso I
  Delay & PM   
-----------------------------------------------------|
-----------------------------------------------------|
--2-----2-----2--2--2-----2--2--2-----2--2--2-----2--|
-----------4-----------4-----------4-----------4-----|
-----------------------------------------------------|
-----------------------------------------------------|
Hay veces que no tengo ganas de verte.........

   
--------------------------------------------------|
--------------------------------------------------|
--2--2-----2--2--2-----2--2--2-----2--2--2-----2--|
--------4-----------4-----------4-----------4-----|
--------------------------------------------------|
--------------------------------------------------|


--------------------------------------------------|
--------------------------------------------------|
--4--4-----4--4--4-----4--4--4-----4--4--4-----4--|
--------5-----------5-----------5-----------5-----|
--------------------------------------------------|
--------------------------------------------------|


--------------------------------------------------|
--------------------------------------------------|
--4--4-----4--4--4-----4--4--4-----4--4--4-----4--|
--------5-----------5-----------5-----------5-----|
--------------------------------------------------|
--------------------------------------------------|x2 todo


   
--------------------------------------------------|
--------------------------------------------------|
--6--6-----6--6--6-----6--6--6-----6--6--6-----6--|
--------7-----------7-----------7-----------7-----|
--------------------------------------------------|
--------------------------------------------------|
Hay veces que quisiera ahogarte en un grito........

   
--------------------------------------------------|
--------------------------------------------------|
--6--6-----6--6--6-----6--6--6-----6--6--6-----6--|
--------7-----------7-----------7-----------7-----|
--------------------------------------------------|
--------------------------------------------------|


     
--------------------------------------------------|
--------------------------------------------------|
--7--7-----7--7--7-----7--7--7-----7--7--7-----7--|
--------9-----------9-----------9-----------9-----|
--------------------------------------------------|
--------------------------------------------------|


  
--------------------------------------------------|
--------------------------------------------------|
--7--7-----7--7--7-----7--7--7-----7--7--7-----7--|
--------9-----------9-----------9-----------9-----|
--------------------------------------------------|
--------------------------------------------------|


 
--------------------------------------------------|
--------------------------------------------------|
--6--6-----6--6--6-----6--6--6-----6--6--6-----6--|
--------7-----------7-----------7-----------7-----|
--------------------------------------------------|
--------------------------------------------------|



--------------------------------------------------|
--------------------------------------------------|
--6--6-----6--6--6-----6--6--6-----6--6--6-----6--|
--------7-----------7-----------7-----------7-----|
--------------------------------------------------|
--------------------------------------------------|


    
--------------------------------------------------|---------------------|
--------------------------------------------------|---------------------|
--7--7-----7--7--7-----7--7--7-----7--7--7-----7--|---------------------|
--------9-----------9-----------9-----------9-----|--5S--------7--------|
--------------------------------------------------|---------------------|
--------------------------------------------------|---------------------|
y  o l v i d a r m e  de  esa  i m a g e n  tuya  , pero no me atrevo.

                    
---------------------|--------------------------------------------------|
---------------------|--------------2-----------2-----------2-----------|
--5g7----------------|--2--2-----2-----2-----2-----2-----2-----2-----2--|
---------------------|--------4-----------4-----------4-----------4-----|
---------------------|--------------------------------------------------|
---------------------|--------------------------------------------------|
                      Hay veces que no dejo de soñarte.............

  
--------------------------------------------------|
--2-----------2-----------2-----------2-----------|
-----2-----2-----2-----2-----2-----2-----2-----2--|
--------4-----------4-----------4-----------4-----|
--------------------------------------------------|
--------------------------------------------------|


   
--------------------------------------------------|
--------------------------------------------------|
--4--4-----4--4--4-----4--4--4-----4--4--4-----4--|
--------5-----------5-----------5-----------5-----|
--------------------------------------------------|
--------------------------------------------------|


   
--------------------------------------------------|
--------------------------------------------------|
--4--4-----4--4--4-----4--4--4-----4--4--4-----4--|
--------5-----------5-----------5-----------5-----|
--------------------------------------------------|
--------------------------------------------------|x2


--------------------------------------------------|
--------------------------------------------------|
--6--6-----6--6--6-----6--6--6-----6--6--6-----6--|
--------7-----------7-----------7-----------7-----|
--------------------------------------------------|
--------------------------------------------------|
Hay veces que quisiera morir contigo.....


--------------------------------------------------|
--------------------------------------------------|
--6--6-----6--6--6-----6--6--6-----6--6--6-----6--|
--------7-----------7-----------7-----------7-----|
--------------------------------------------------|
--------------------------------------------------|


 
--------------------------------------------------|
--------------------------------------------------|
--7--7-----7--7--7-----7--7--7-----7--7--7-----7--|
--------9-----------9-----------9-----------9-----|
--------------------------------------------------|
--------------------------------------------------|


 
--------------------------------------------------|
--------------------------------------------------|
--7--7-----7--7--7-----7--7--7-----7--7--7-----7--|
--------9-----------9-----------9-----------9-----|
--------------------------------------------------|
--------------------------------------------------|x2


  

                      PHASER                                                  
 
-------------------|--------------------------|--------------------------|
-------------------|--------------------------|--------------------------|
-------------------|--5--4-----4--5--4-----4--|--5--4-----4--5--4-----4--|
-------------------|--------7-----------7-----|--------7-----------7-----|
-------------------|--------------------------|--------------------------|
-------------------|--------------------------|--------------------------|x4


     W                  
|--<>14~-----------|--L--------------------|--<>15~------------|--L----------------|
-------------------|-----------------------|-------------------|-------------------|
-------------------|-----------------------|-------------------|-------------------|
-------------------|-----------------------|-------------------|-------------------|
-------------------|-----------------------|-------------------|-------------------|
-------------------|-----------------------|-------------------|-------------------|x2

Hay veces que no se lo que me pasa...........


     
-------------------|-------------------|-------------------|
-------------------|-------------------|-------------------|
-------------------|-------------------|-------------------|
--7----------------|-------------------|--9----------------|
--7----------------|-------------------|--9----------------|
--5----------------|-------------------|--7----------------|
            S o m o s  c o m o  g atos en celo,....

                           PM PM PM PM PM PM    PM PM PM PM PM PM PM                                     -------------------|-------------------------|---------------------------|
-------------------|-------------------------|---------------------------|
-------------------|-------------------------|---------------------------|
--L----------------|--7----------------------|---------------------------|
--L----------------|--7----7--7--7--7--7--7--|--7--7--7--7--7--7--7--7-7-|
--L----------------|--5----5--5--5--5--5--5--|--5--5--5--5--5--5--5--5-5-|
                    Somos una célula que explota...............

       PM PM PM PM PM PM                                                  
-------------------------|--------------------|
-------------------------|--------------------|
--7----------------------|--------------------|
--9----------------------|--5--------7--------|
--9----9--9--9--9--9--9--|--5--------7--------|
--7----7--7--7--7--7--7--|--3--------5--------|
                          y esa no la para....


--------------------------|--------------------------|
--------------------------|--------------------------|
--5--4-----4--5--4-----4--|--5--4-----4--5--4-----4--|
--------7-----------7-----|--------7-----------7-----|
--------------------------|--------------------------|
--------------------------|--------------------------|x14


      T      T       T       T          T       T       T   T     
--------------------------------|------15------17------19--17----|
-----10-----12------15------17--|--------------------------------|
--------------------------------|--12------14------16------------|
--7------9------12------14------|--------------------------------|
--------------------------------|--------------------------------|
--------------------------------|--------------------------------|


                   <                          
-------|-------|---------------------|
-------|-------|--15~----------------|
-------|-------|---------------------|
-------|-------|---------------------|
-------|-------|---------------------|
-------|-------|---------------------|
wo wo oh oh......

                       <                                                
-------------------|--17----------------|--L----------------|
--L----------------|--------------------|-------------------|
-------------------|--------------------|-------------------|
-------------------|--------------------|-------------------|
-------------------|--------------------|-------------------|
-------------------|--------------------|-------------------|

                      
--14brb----------------|--L----------------|
-----------------------|-------------------|
-----------------------|-------------------|
-----------------------|-------------------|
-----------------------|-------------------|
-----------------------|-------------------|x2 todo



--15---15---15--15S----17--17--|-----------------------19--|
-------------------------------|------15----15~------------|
-------------------------------|---------------------------|
-------------------------------|---------------------------|
-------------------------------|---------------------------|
-------------------------------|---------------------------|



--19----19--19----17--17----|-----14brb---------------|
----------------------------|-------------------------|
----------------------------|-------------------------|
----------------------------|-------------------------|
----------------------------|-------------------------|
----------------------------|-------------------------|


  
--15---15---15--15S----17--17--|--------------------------|
-------------------------------|------15----15~-----------|
-------------------------------|--------------------------|
-------------------------------|--------------------------|
-------------------------------|--------------------------|
-------------------------------|--------------------------|


      
--12--12S----14--14----15--14~--||
--------------------------------||
--------------------------------||
--------------------------------||
--------------------------------||
--------------------------------||

*** SEGUNDA GUITARRA

E||-------|-------|-------|-------|-------|-------|
B||-------|-------|-------|-------|-------|-------|
G||-------|-------|-------|-------|-------|-------|
D||-------|-------|-------|-------|-------|-------|
A||-------|-------|-------|-------|-------|-------|
E||-------|-------|-------|-------|-------|-------|


                                Bm                                                 
-----------------------------|--2--2----2-------------|
---------------------------3-|--L--3----3-------------|
-------------------------4---|--L--4----4-------------|
-----------------------4-----|--L--4----4-------------|
---------------------2-------|--L---------------------|
-------------------2---------|--L---------------------|
                * cuando empiezan todos los instrumentos

  
--5--5--x--5--5--x--5--5--|--x--5--5----5----5----|--2--2----2--------|
--7--7--x--7--7--x--7--7--|--x--7--7----7----7----|--3--3----3--------|
--7--7--x--7--7--x--7--7--|--x--7--7----7----7----|--4--4----4--------|
--------------------------|-----------------------|--4--4----4--------|
--------------------------|-----------------------|--2--2----2--------|
--------------------------|-----------------------|-------------------|


                
--L------------------|--5--5--x--5--5--x--5--5--|-L-----------------|
--L------------------|--7--7--x--7--7--x--7--7--|-L----------------|
--L------------------|--7--7--x--7--7--x--7--7--|-L-----------------|
--L------------------|--------------------------|-------------------|
---------------------|--------------------------|-------------------|
---------------------|--------------------------|-------------------|


  F#m                                                                        
--2----------------|-------|-------|
--2----------------|-------|-------|
--2----------------|-------|-------|
--4----------------|-------|-------|
-------------------|-------|-------|
-------------------|-------|-------|
Hay veces que no tengo ganas de verte.....




                                                  PHASER en la primera gtr
-------|--------------------|-------------------|--------------------------|
-------|--------------------|-------------------|--------------------------|
-------|--------------------|-------------------|--2--2--2--2--2--2--2--2--|
-------|--------------------|-------------------|--3--3--3--3--3--3--3--3--|
-------|--5--------7--------|--L----------------|--3--3--3--3--3--3--3--3--|
-------|--3--------5--------|--L----------------|--1--1--1--1--1--1--1--1--|
        pero no me atrevo........

  
--------------------------|--------------------------|
--------------------------|--------------------------|
--2--2--2--2--2--2--2--2--|--4--4--4--4--4--4--4--4--|
--3--3--3--3--3--3--3--3--|--5--5--5--5--5--5--5--5--|
--3--3--3--3--3--3--3--3--|--5--5--5--5--5--5--5--5--|
--1--1--1--1--1--1--1--1--|--3--3--3--3--3--3--3--3--|


--------------------------|--------------------------|
--------------------------|--------------------------|
--4--4--4--4--4--4--4--4--|--2--2--2--2--2--2--2--2--|
--5--5--5--5--5--5--5--5--|--3--3--3--3--3--3--3--3--|
--5--5--5--5--5--5--5--5--|--3--3--3--3--3--3--3--3--|
--3--3--3--3--3--3--3--3--|--1--1--1--1--1--1--1--1--|

  
--------------------------|--------------------------|
--------------------------|--------------------------|
--2--2--2--2--2--2--2--2--|--4--4--4--4--4--4--4--4--|
--3--3--3--3--3--3--3--3--|--5--5--5--5--5--5--5--5--|
--3--3--3--3--3--3--3--3--|--5--5--5--5--5--5--5--5--|
--1--1--1--1--1--1--1--1--|--3--3--3--3--3--3--3--3--|


--------------------------|------------------------------|
--------------------------|------------------------------|
--4--4--4--4--------------|------------------------------|
--5--5--5--5--5--5--5\----|------------------------------|
--5--5--5--5--5--5--5\----|------------------------------|
--3--3--3--3--3--3--3\----|--2--2-2-2--2-2-2--2-2-2--2-2-|
                            Hay veces que no se lo que me pasa...

------------------------------|------------------------------|------------------------------|
------------------------------|------------------------------|------------------------------|
------------------------------|------------------------------|------------------------------|
------------------------------|------------------------------|------------------------------|
------------------------------|------------------------------|------------------------------|
--2--2-2-2--2-2-2--2-2-2--2-2-|--3--3-3-3--3-3-3--3-3-3--3-3-|--3--3-3-3--3-3-3--3-3-3--3-3-|x2





  A                   Bm                           
--0----------------|--2----------------|
--2----------------|--2----------------|
--2----------------|--4----------------|
--2----------------|--4----------------|
--0----------------|--2----------------|
-------------------|-------------------|
Somos como gatos en celo,....
                                                             
        PM PM PM PM PM PM   PM PM PM PM PM PM PM
-------------------------|---------------------------|
--2----------------------|---------------------------|
--2----------------------|---------------------------|
--2----2--2--2--2--2--2--|--2--2--2--2--2--2--2--2-2-|
--0----0--0--0--0--0--0--|--0--0--0--0--0--0--0--0-0-|
-------------------------|---------------------------|
   somos una cee...elula ...

           PM PM PM PM PM PM                       
-------------------------|--------------------|
--3----------------------|--------------------|
--4----------------------|--------------------|
--4----4--4--4--4--4--4--|--5--------7--------|
--2----2--2--2--2--2--2--|--5--------7--------|
-------------------------|--3--------5--------|
  ...que explota....       y esa no la para....
  
--------------------------|--------------------------|
--------------------------|--------------------------|
--2--2--2--2--2--2--2--2--|--2--2--2--2--2--2--2--2--|
--3--3--3--3--3--3--3--3--|--3--3--3--3--3--3--3--3--|
--3--3--3--3--3--3--3--3--|--3--3--3--3--3--3--3--3--|
--1--1--1--1--1--1--1--1--|--1--1--1--1--1--1--1--1--|


--------------------------|--------------------------|
--------------------------|--------------------------|
--4--4--4--4--4--4--4--4--|--4--4--4--4--4--4--4--4--|
--5--5--5--5--5--5--5--5--|--5--5--5--5--5--5--5--5--|
--5--5--5--5--5--5--5--5--|--5--5--5--5--5--5--5--5--|
--3--3--3--3--3--3--3--3--|--3--3--3--3--3--3--3--3--|x3


 
--------------------------|--------------------------|
--------------------------|--------------------------|
--2--2--2--2--2--2--2--2--|--2--2--2--2--2--2--2--2--|
--3--3--3--3--3--3--3--3--|--3--3--3--3--3--3--3--3--|
--3--3--3--3--3--3--3--3--|--3--3--3--3--3--3--3--3--|
--1--1--1--1--1--1--1--1--|--1--1--1--1--1--1--1--1--|


 
--------------------------|--------------------------|-----------------------|
--------------------------|--------------------------|-----------------------|
--------------------------|--------------4--4--4-----|--7---7---7----7----7--|
--7--7--7--7--9--9--9--9--|--5--5--5--5--4--4--4-----|--7---7---7----7----7--|
--7--7--7--7--9--9--9--9--|--5--5--5--5--2--2--2-----|--5---5---5----5----5--|
--5--5--5--5--7--7--7--7--|--3--3--3--3--------------|-----------------------|
                                                        wo wo oh oh......

-----------------------|-------------------------|--------------------------|
-----------------------|-------------------------|--------------------------|
--7---7---7----7----7--|--4----4--4--4--4--4--4--|--4--4--4--4--4--4--4--4--|
--7---7---7----7----7--|--4----4--4--4--4--4--4--|--4--4--4--4--4--4--4--4--|
--5---5---5----5----5--|--2----2--2--2--2--2--2--|--2--2--2--2--2--2--2--2--|
-----------------------|-------------------------|--------------------------|x5


 
-----------------------|-----------------------|-------------------------|
-----------------------|-----------------------|-------------------------|
--7---7---7----7----7--|--7---7---7----7----7--|--4----4--4--4--4--4--4--|
--7---7---7----7----7--|--7---7---7----7----7--|--4----4--4--4--4--4--4--|
--5---5---5----5----5--|--5---5---5----5----5--|--2----2--2--2--2--2--2--|
-----------------------|-----------------------|-------------------------|


-----------------------|-----------------------|--------------------------||
-----------------------|-----------------------|--------------------------||
--7---7---7----7----7--|--7---7---7----7----7--|--------------------------||
--7---7---7----7----7--|--7---7---7----7----7--|--5--5-----7--7-----9--9--||
--5---5---5----5----5--|--5---5---5----5----5--|--5--5-----7--7-----9--9--||
-----------------------|-----------------------|--3--3-----5--5-----7--7--||

Fuente: Tusacordes