a b c d e f g h i j k l m n o p q r s t u v w x y z 0-9

Ilasha

Panda

			
Q onda raza ahí les mando una rola muy buena de Panda q también es una d mis favoritas espero q les gust 

ILASHA

Intro
e|---------------------------------------|
B|---------------------------------------|
G|---------------------------------------|
D|----------3-6--------------------------| x6 
A|----3-6-4------------------------------|     
E|--4------------------------------------|

Chequeen los ritmos y el numero de veces q se toca 

Por que me dejaste 
e|-----------------------|
B|-----------------------|
G|-----6-----------------|
D|--6--6--3--2-----------|
A|--6--4--3--2-----------|
E|--4-----1--0-----------|


Yo pense que eras normal...
e|---------------------------------------|
B|---------------------------------------|
G|---------6-6-6-------------------------|
D|--6-6-6--6-6-6---x2--------------------|
A|--6-6-6--4-4-4-------------------------|
E|--4-4-4--------------------------------|
Pm  ...    ...

luego

e|---------------------------------------|
B|---------------------------------------|
G|---------6-6-6-------------------------|
D|--6-6-6--6-6-6---3-3-3--2-2-2----------|
A|--6-6-6--4-4-4---3-3-3--2-2-2----------|
E|--4-4-4----------1-1-1--0-0-0----------|
Pm  ...    ...     ...    ... 



Coro  chequeen los ritmos

e|-----------------------|
B|-----------------------|
G|---------6--8----------|
D|---6--8--6--8----------| x2
A|---6--8--4--6----------|
E|---4--6----------------|






Intro
e|---------------------------------------|
B|---------------------------------------|
G|---------------------------------------|
D|----------3-6--------------------------| x4 
A|----3-6-4------------------------------|     
E|--4------------------------------------|



Chequeen los ritmos y el numero de veces q se toca 

Por que estas tan triste 
e|-----------------------|
B|-----------------------|
G|-----6-----------------|
D|--6--6--3--2-----------|
A|--6--4--3--2-----------|
E|--4-----1--0-----------|


Me enseñaste muchas cosas...
e|---------------------------------------|
B|---------------------------------------|
G|---------6-6-6-------------------------|
D|--6-6-6--6-6-6---x2--------------------|
A|--6-6-6--4-4-4-------------------------|
E|--4-4-4--------------------------------|
Pm  ...    ...

luego

e|---------------------------------------|
B|---------------------------------------|
G|---------6-6-6-------------------------|
D|--6-6-6--6-6-6---3-3-3--2-2-2----------|
A|--6-6-6--4-4-4---3-3-3--2-2-2----------|
E|--4-4-4----------1-1-1--0-0-0----------|
Pm  ...    ...     ...    ... 



Coro  chequeen los ritmos

e|-----------------------|
B|-----------------------|
G|---------6--8----------|
D|---6--8--6--8----------| x2
A|---6--8--4--6----------|
E|---4--6----------------|



Tu me dijiste muchas cosas...   chequeen los ritmos

e|-----------------------|
B|-----------------------|
G|-----------------------|
D|---6--8----------------| x7
A|---6--8----------------|
E|---4--6----------------|
Coro  chequeen los ritmos

e|-----------------------|
B|-----------------------|
G|---------6--8----------|
D|---6--8--6--8----------| x4
A|---6--8--4--6----------|
E|---4--6----------------|


Cualkier reclamo escríbanme a tankian_28@hotmail.com

Fuente: tusacordes.com