a b c d e f g h i j k l m n o p q r s t u v w x y z 0-9

Hombre De Lata

Panda

			
hombre de lata 
intro  
-----------------------ICHEKEN LAS 
-----------------------IVECES QUE SE REPITE
-----0-------0---------I
---2---2---2---2-------I
-3-------0-------3-----I
-----------------------I
CHEKEN CUANTOS RASGEOS SON EN CADA UNO
---------0-------0-----I-------0------------IX2
-1-------0-------0-----I-1-----0------------I
---------0-------2-----I-------0------------I
-2-------2-------2-----I-2-----2------3-----I
-3-------2-------0-----I-3-----2------3-----I
---------0-------0-----I-------0------1-----I

VERSO X2, SE TOCA LO QUE ESTA ARRIBA.
CORO  X2,SE TOCA LO MISMO

VERSO. NO ME SE MUY BIEN EL SEGUNDO VERSO, PERO
VA ALGO HACI
ERAS TU...     ESTO SE REPITE 2 VECES CREO
---------------------------------------------------------1-1--- 
-------------------------------------------------------------2-2
-5-5-5-5-4-4-4-4-2-2-2-2-4-4-4-4-5-5-5-5-4-4-4-4---------------
-------------------------------------------------3-3-3-3-------
---------------------------------------------------------------
--------------------------------------------------------------- 
VAYAN AL RITMO
SIN PENSAR....
------------------I
------------------I
-5--4--2--4--5----I
------------------I
------------------I
------------------I  
CORO    
PUENTE   4 RASGEOS CADA UNO            2 RASGEOS
------------------2-------------------I--2-------IX2
------------------3-------------------I--2-------I
------------------2-------------------I--2---1---I
-2-2-2-2--------------2-2-2-2---------I--4---2---I
---------4-4-4-4--------------4-4-4-4-I--4---2---I
--------------------------------------I--2-------I
yyyyy,mientras sigoooo.....
-2-2-2-2---2-2-2-2----3-3-3-3-3-5-------I
-3-3-3-3---2-2-2-2----3-3-3-3-3-5-------I
-2-2-2-2---2-2-2-2----3-3-3-3-3-5-------I
-----------4-4-4-4----5-5-5-5-5-5-------I
-----------4-4-4-4----5-5-5-5-5-5-------I
-----------2-2-2-2----3-3-3-3-3-3-------I
DESPUES DE ESTO
SE HACE EL CORO  
ESO ES TODO 
ESPERE Y LE AIGA GUSTADO

Fuente: Tusacordes