a b c d e f g h i j k l m n o p q r s t u v w x y z 0-9

Hombre De Lata

Panda

Am
Em
F
A
E
Bm
			
1---------------------------------
2---------------------------------
3-------0-------0-------0-------0-
4-----2---2---2---2---2---2---2---
5---3-------0-------3-------0-----
6---------------------------------
 y el otro punteo es este
este punteo tambien se toca donde dice eres tu mi dulce ilusion
1------------------------------------
2------------------------------------
3-9-10-9-12----------9-10-9-12-------
4----------10-10--------------10-10--
5------------------------------------
6------------------------------------

Intro: Am - Em - F x4

Am    Em        F
Voy Hablar sin hablar
      Am Em F       Am Em F
es mi voz que surge sin control

Coro
      Am          Em        F
En donde esta el hombre de lata
Am      Em   F
donde estas tu
Am         Em        F                  Am Em F 
de nada me sirve si no me distingues en la multitud


Eres tu mi dulce ilusion

era yo un hombre de laton
 
sin pensar me diste un corazon

sin hablar te regale mi voz

      Am          Em        F
En donde esta el hombre de lata
Am      Em   F
donde estas tu
Am         Em        F                  Am Em F 
de nada me sirve si no me distingues en la multitud

A - E - Bm x2

Am  Em     F
Y mientras yo
Am        Em        F              Am Em F 
me oxido me castro me quemo sin tu control

      Am          Em        F
En donde esta el hombre de lata
Am      Em   F
donde estas tu
Am         Em        F                  Am Em F 
de nada me sirve si no me distingues en la multitud

      Am          Em        F
En donde esta el hombre de lata
Am      Em   F
donde estas tu
Am         Em        F                  Am Em F 
de nada me sirve si no me distingues en la multitud

El final termina con F

Fuente: Tusacordes