a b c d e f g h i j k l m n o p q r s t u v w x y z 0-9

Hola

Panda

			
Hola!
           intro
G-----------------|-----------------|-----------------|-----------------|-----------------|
D-----------------|-----------------|-----------------|-----------------|-----------------|
A--------7=====---|-7-7-7-7-7-7-7-7-|-----------------|-----------------|-----------------|
E-----------------|-----------------|-7-7-7-7-7-7-7-7-|-9-9-9-9-9-9-9-9-|-5-5-5-5-7-7-7-7-|x2


  So....mos.....panda!! inicio de la cancion
                    G---------------------|------------------|---------------|--------------|
                    D---------------------|------------------|---------------|--------------|
                    A---------------------|------------------|--0-0-------0--|--2-2------2--|
                    E-------0-0--------0--|---2-2---------2--|---------------|--------------|x4


                    G---------------------|------------------|---------------|--------------|
                    D---------------------|------------------|---------4-----|--------1-----|
                    A---------------------|---------0--------|-----0-0---0---|----2-2---2---|
                    E-------0-0-4-0-------|-----2-2---2------|---------------|--------------|x4




Te estoy avisando .......coro

                   G------------------|-----------------|-----------------|-----------------|
                   D------------------|-----------------|-----------------|-----------------|
                   A-7-7-7-7-7-7-7-7--|-----------------|-----------------|-----------------|
                   E------------------|-7-7-7-7-7-7-7-7-|-9-9-9-9-9-9-9-9-|-5-5-5-5-7-7-7-7-|x4



Okay aki es cuando para de cantar es media complicada esta parte es rápida

 G------------|     G------------|     G------------|    G------------|    G------------|
 D------------|     D------------|     D------------|    D------------|    D------------|
 A------------|     A------------|     A---0--2/3---|    A---2--4/5---|    A---4--6/7---|
 E---0--5/6---|x4   E---2--4/5---|x4   E------------|x4  E------------|x2  E------------|x2


   Pues esta es toda la cancion. !Espero que les guste..............Fuente: Tus acordes