a b c d e f g h i j k l m n o p q r s t u v w x y z 0-9

Hasta El Final

Panda

A
E
F#m
D
			
pues aqui esta esta rolita esta papa pa los que empiezan         
A   
e|----------  -------|
B|-10-10-9/10--------|
G|---9---------------|
D|-------------------|
A|-------------------|
E|-------------------|

      E
e|----------  -------|
B|-10-10-9/10--------|
G|---9---------------|
D|-------------------|
A|-------------------|
E|-------------------|

       F#m
e|----------  -------|
B|-10-10-9/10--------|
G|---9---------------|
D|-------------------|
A|-------------------|
E|-------------------|


              D                 E
e|----------------------|
B|----14-12-10-12-10--9-|
G|----------------------|
D|----------------------|
A|----------------------|
E|----------------------|
              D                 E
e|-----------------10-9-|
B|----14-12-10-12-------|
G|----------------------|
D|----------------------|
A|----------------------|
E|----------------------|


parte 1
 A             E                       F#m
te pido por favor guardar silencio amor
                  D       E
me desconcentrare a la primera
 A            E                      F#m
te pido porfavor la simple aceptacion
                     D         E
que nunca fuiste tu la mas sincera.

 A          E
Facil yo pude haber muerto
 F#m         D        E
junto a ti y a la primera
 A            E
y en tu tumba debe decir
     F#m          D         E   D
que nunca fuiste la mas sincera.

 A             E                      F#m
Te pido porfavor recuerda siempre amor
                     D           E
que yo aqui estare siempre que quieras
 A                      E              F#m
lo que tendras que hacer solo resucitar
                     D        E   D
pues yo te elimine siempre recuerda.


 ccoro
                A                   E
Que hasta el final conmigo vas a estar
                 F#m                 D
conmigo has de estar recuerda que todo
          E                  A 
lo sigue siempre hasta el final conmigo
         E                   F#m
vas a estar conmigo has de estar promesas
        D   E
son promesas.


se hace el intro de nuevo

parte 2
 A                 E            F#m
Te pido ve a tachar en tu agenda
                   D         E
pues ya no estaras para cumplirla
 A             E               F#m
pero tu estaras aqui junto a mi 
                      D         E
si no es por voluntad sera por fuerza.


 A          E
Facil yo pude haber muerto
 F#m         D        E
junto a ti y a la primera
 A            E
y en tu tumba debe decir
     F#m          D         E   D
que nunka fuiste la mas sincera.


cooro
               A                   E
Que hasta el final conmigo vas a estar
                 F#m                 D
conmigo has de estar recuerda que todo
          E                  A 
lo sigue siempre hasta el final conmigo
         E                   F#m
vas a estar conmigo has de estar promesas
        D   E
son promesas.


interluido


F#m                   D
No tienes una idea de la soledad
               A 
pues ya estas con alguien mas
     E                   F#m
el tiempo te va a enseñar
                           D
yo siempre fui el mejor para perdonar
        A 
y ahora ya no es igual
    E
contigo batallo.!

F#m                   D
No tienes una idea de la soledad  [Regreeeeeeeeesaaa]
               A 
pues ya estas con alguien mas
     E                   F#m
el tiempo te va a enseñar
                        D
yo siempre fui el mejor para perdonar [Regreeeeeeeeesaaa]
        A              E                    F#m en deciseisavos un compas de 4 tiempos
y ahora ya no es igual.!!!


se hace lo cas lo mismo que al principio pero con un poco mas de velocidad y exactitud

    A 

e|-----------------|
B|-10-10-9-9-9-10--|
G|---9-----------9-|
D|-----------------|
A|-----------------|
E|-----------------|
    E
e|-----------------|
B|-10-10-9-9-9-10--|
G|---9-----------9-|
D|-----------------|
A|-----------------|
E|-----------------|
    F#m
e|-----------------|
B|-10-10-9-9-9-10--|
G|---9-----------9-|
D|-----------------|
A|-----------------|
E|-----------------|
      D                               E            A 
e|-------------------------|
B|-14-12-10-12-10-9-7-5/10-|
G|-------------------------|
D|-------------------------|
A|-------------------------|
E|-------------------------|
 esto se repite cuatro o ccinco veces hasta el final o si se les hace dificil solo toquen los acordes del intro :]

Fuente: tusacordes.com