a b c d e f g h i j k l m n o p q r s t u v w x y z 0-9

Hasta El Final

Panda

C
Em
Am
F
G
			
 INTRO:
E]------------------------------------------------------------------------------
B]-------10----10------9---10-------14--------12-----10----10----9----
G]-------------9------9---------------------------------------------------------
D]-------------------------------------------------------------------------------
A]-------------------------------------------------------------------------------
E]-------------------------------------------------------------------------------X2

  C                  Em
Te pido por favor , guardar silencio amor,
 Am                   F/G
me desconcentrare a la primera,
   C                    Em
te pido por favor, la simple aceptación,
  Am                  F/G
que nunca fuiste tu la mas sincera.
 C            Em               Am               F/G
fácil, yo pude haber muerto, junto a ti, a la primera,
 C              Em              Am            F   G/F
y en tu tumba debe decir, que nunca fuiste la más sincera.

  C                   Em
te pido por favor recuerda siempre amor,
 Am                   F         G
que yo aquí estaré siempre que quieras,
    C                         Em
lo que tendrás que hacer, solo resucitar,
   Am                 F       G
pues yo te elimine siempre recuerda

Coro

          C                  Am
hasta el final, conmigo has de estar,
                F
conmigo has de estar,
               G              F                C
recuerda que todo lo sigues siempre hasta el final,
                Am                     F
conmigo has de estar, conmigo has de estar,
                G/F
promesas son promesas



INTRO:
E]------------------------------------------------------------------------------

B]-------10----10------9---10-------14--------12-----10----10----9----

G]-------------9------9---------------------------------------------------------

D]-------------------------------------------------------------------------------

A]-------------------------------------------------------------------------------
E]-------------------------------------------------------------------------------

C                  Em
te pido ya tachar en tu agenda,
Am                   F/G
pues ya no estarás, para cumplirla,
C                   Em
pero tu estarás aquí, junto a mi ,
Am                 F/G
si no es por voluntad, será por fuerza


C            Em               Am               F/G
fácil, yo pude haber muerto, junto a ti, a la primera,
 C              Em              Am            F   G/F
y en tu tumba debe decir, que nunca fuiste la más sincera.



Coro

          C                  Am
hasta el final, conmigo has de estar,
                F
conmigo has de estar,
               G              F                C
recuerda que todo lo sigues siempre hasta el final,
                Am                     F
conmigo has de estar, conmigo has de estar,
                G/F
promesas son promesas



 C                        G                       Am
no tienes una idea de la soledad, pues ya estas con alguien mas,
     F       G/F
el tiempo te va a enseñar,
 C                         G                    Am
yo siempre fui el mejor, para perdonar, y ahora ya no es igual,
   F       G/F
contigo batallo,  [regresa]
 C                         G                       Am
No tienes una idea de la soledad, pues ya estas con alguien mas,
     F          G/F
El tiempo te va a enseñar,
  C                         G                    Am
Yo siempre fui el mejor, para perdonar, y ahora ya no es igual,
F        G/F
Contigo batallo...




E]------------------------------------------------------------------------------
B]-------10----10------9---10-------14--------12-----10----10----9----
G]-------------9------9---------------------------------------------------------
D]-------------------------------------------------------------------------------
A]-------------------------------------------------------------------------------
E]-------------------------------------------------------------------------------X2 

Fuente: tusacordes.com