a b c d e f g h i j k l m n o p q r s t u v w x y z 0-9

Hasta El Final

Panda

			
hola a todos... aka les dejo esta rolita ke esta muy padre...
espero que les guste... esta al cien porciento..... comprobado
saquenla esta chida nos vemos en la prox....

Primero afinen la guitarra en b... para que se oyga bien...

Intro:

Segunda guitarra

eb|-----------------------------------|
Bb|-----------------------------------|
Gb|--4444-----------------------------|
Db|--4444-4444-6666-22-44-------------|X2
Ab|--2222-4444-6666-22-44-------------|
Eb|-------2222-4444-00-22-------------|

Primera guitarra

eb|-----------------------------------------------------|
Bb|----12----12-11-12---------16-14-12-14-12-11---------|
Gb|-------11------------x3----------------------------|

eb|---------------------------------------12-11~--------|
Bb|----12----12-11-12---------16-14-12-14---------------|
Gb|-------11------------x3----------------------------|


Verso: todo x2

eb|------------------------------------------------|
Bb|------------------------------------------------|
Gb|--44-4--------------------------------------|
Db|--44-4?444-4?66-6-222-4-----|X2
Ab|--22-2?444-4?66-6-222-4-----|
Eb|-----------222-2?44-4-000-2-----|
  Los acordes entre paréntesis son con palm mute

eb|--------------------------------------------|
Bb|--------------------------------------------|
Gb|--------------------------------------------|
Db|--4444?-------------------------------------|X1
Ab|--2222?4444-6666-22-44----------------------|
Eb|-------2222-4444-00-22----------------------|
    p.m.               p.m.       p.m.      

eb|--------------------------------------------|
Bb|--------------------------------------------|
Gb|--------------------------------------------|
Db|--4444?-----------------2~-~~---------------|X1
Ab|--2222?4444-6666-2222-4-2~-~~---------------|
Eb|-------2222-4444-0000-2-0~-~~---------------|
    p.m.          p.m.   


coro:

segunda guitarra:

eb|--------------------------------------------|
Bb|--------------------------------------------|
Gb|--44444444----------------------------------|
Db|--44444444-44444444-66666666-2222-4444------|X2
Ab|--22222222-44444444-66666666-2222-4444------|
Eb|-----------22222222-44444444-0000-2222------|

Primera guitarra:

eb|-----------------------------------------------------|
Bb|-11-12----12-11-12----12-11-12----12/16-16-14-12-11--| x4
Gb|-------11----------11----------11--------------------|
para q se les facilite: este riff es muy parecido al d si supieras

Intro:

Verso: solo 1 ves

Coro:

Puente:

No tienes una idea d la soledad...
eb|------------------------------------------|
Bb|------------------------------------------|
Gb|--------------------44444444--------------|
Db|--66666666-22222222-44444444-44444444-----|X4
Ab|--66666666-22222222-22222222-44444444-----|
Eb|--44444444-00000000----------22222222-----|

Levante:

eb|-----------------------------------|
Bb|-----------------------------------|
Gb|-----------------------------------|
Db|-22222222222222222222--------------|X1
Ab|-22222222222222222222--------------|
Eb|-00000000000000000000--------------|
   p.m.    p.m.    p.m.


Outro:

Segunda guitarra:

eb|-----------------------------------|
Bb|-----------------------------------|
Gb|--4444-----------------------------|
Db|--4444-4444-6666-22-44-------------|X?
Ab|--2222-4444-6666-22-44-------------|
Eb|-------2222-4444-00-22-------------|

Primera guitarra:

eb|-----------------------------------------------------------|
Bb|------12----11----12----------16-14-12-14-12-11------------|x?
Gb|---11----11----11----11-x3--------------------13-11------|

Fuente: tusacordes.com