a b c d e f g h i j k l m n o p q r s t u v w x y z 0-9

Hasta El Final

Panda

			
intro:
E)---------------.x3.-----------------------.
B)--9---9---8---9....--14--12--10--12--10--9.
G)----8----------....-----------------------.
D)---------------....-----------------------.
A)---------------....-----------------------.
E)---------------....-----------------------.

---------------.x3.-----------------10--9-.
--9---9---8---9....--14--12--10--12-------.
----8----------....-----------------------.
---------------....-----------------------.
---------------....-----------------------.
---------------....-----------------------.

Fuente: tusacordes.com