a b c d e f g h i j k l m n o p q r s t u v w x y z 0-9

Fascinante

Panda

			
Intro 
Guitarra 1
eb|-------------------------------------|
Bb|-------------------------------------|
Gb|-------------------55555555-77777777-| x2
Db|-22222222-55555555-55555555-77777777-|
Ab|-22222222-55555555-33333333-55555555-|
Eb|-00000000-33333333-------------------|

Guitarra 2
eb|-12--12--12--12---10--10--10--10---------------------------------
Bb|---12--12--12--12---12--12--12--12--12h13--12h13--12h13--12h13---
Gb|-----------------------------------------12-----12-----12-----12-
Db|-----------------------------------------------------------------
Ab|-----------------------------------------------------------------

-------------------------------------12--12--12--12---10--10--10--10---
-14h15--14h15--14h15----------12-15----12--12--12--12---12--12--12--12-
------14-----14-----14--12-14------------------------------------------
-----------------------------------------------------------------------
-----------------------------------------------------------------------

---------------------------------------------------------------|
-12h13--12h13--12h13--12h13---14h15--14h15--14h15--------------|
------12-----12-----12-----12------14-----14-----14--12-14-----|
-----------------------------------------------------------14~ |
---------------------------------------------------------------|

Verso delay
Yo te contare soy la sencillez, solo tengo un leve preblema, mucho desnivel ya me acostumbre, no hay rival que prometa.
O que iguale mi superioridad, hay que cuidar la belleza, dejame encontrar una mascara, y asi hablar con franqueza.
eb|---------14--------15----------|
Bb|---12--12----14--14----14---14-|
Gb|-14--14----12--12----12---12---| x8
Db|-------------------------------|
Ab|-------------------------------|
Eb|-------------------------------|

Precoro 
Guitarra 2
Esta es la verdad  ¿cuanto faltara para la eternidad? 
Quiero que aprendas a poder valorar que te falto muy poco para ser estelar.
eb|-------------------10..------------------------|
Bb|--------8..------12..-------8..--------5..-----|
Gb|---9..--------12..------------9..--------5..---| x2
Db|-----9..---------------------------------------|
Ab|-----------------------------------------------|
Eb|-----------------------------------------------|


Guitarra 1
eb|----------------------------------------------------------------|
Bb|----------------------------------------------------------------|
Gb|-----------------------------------xx---5-xx---5--xx---0-xx---0-|
Db|-9/2-xx---5-xx---5--xx---5-xx---5--xx--5--xx--5---xx--7--xx--7--|
Ab|-9/2-xx--7--xx--7---xx--5--xx--5---xx-3---xx-3----xx-5---xx-5---|
Eb|-7/0-xx-7---xx-7----xx-3---xx-3---------------------------------|

Coro
Que increible es, que no exista manera que en mi vida entera yo me pueda equivocar.
Que increible es, tener control de todo que no exista modo que algo me pueda salir mal.
eb|----------------------------|---------------|-----------|
Bb|----------------------------|---------------|-----------|
Gb|----------77777777----------|-5-xxx-7-------|-5555-7777-|
Db|-55555555-77777777-22222222-|-5-xxx-7--xxxx-|-5555-7777-|
Ab|-55555555-55555555-22222222-|-3-xxx-5--xxxx-|-3333-5555-|
Eb|-33333333----------00000000-|----------xxxx-|-----------|
                            X2      1 vez          2 vez  

Intro
Guitarra 1
eb|-------------------------------------|
Bb|-------------------------------------|
Gb|-------------------55555555-77777777-| 
Db|-22222222-55555555-55555555-77777777-|
Ab|-22222222-55555555-33333333-55555555-|
Eb|-00000000-33333333-------------------|

Guitarra 2
eb|-12--12--12--12---10--10--10--10---------------------------------
Bb|---12--12--12--12---12--12--12--12--12h13--12h13--12h13--12h13---
Gb|-----------------------------------------12-----12-----12-----12-
Db|-----------------------------------------------------------------
Ab|-----------------------------------------------------------------

----------------------------------|
-14h15--14h15--14h15--------------|
------14-----14-----14--12-14-----|
------------------------------14~ |
----------------------------------|

Verso
Se acerca el final, ve a reflexionar, si acaso alguien te extrañara, te ofrezco seguridad, pues a mi un poco mas del centenar.
No te aflijas yo estare aquí, llegue a salvar todo aquello, que te hace pensar en mi,y  no confies, no soy tan gentil.

Precoro
Forza una vez mas, trata una vez mas, de no enamorarte, al pensar en mi.
Al verme sonreir, no quiero que te espantes, no quiero ser hostil.


Coro
Que increible es, que no exista manera que en mi vida entera yo me pueda equivocar.
Que increible es, tener control de todo que no exista modo que algo me pueda salir mal.

Puente
Guitarra 2
   G5        D5       E5       C5  D5
eb|-----------------------------------------|
Bb|-----------------------------------------|
Gb|-----------xxxx-xxxx-----------xxxx-7///-|
Db|-----------xxxx-xxxx-xxxx-xxxx-xxxx-7///-|
Ab|-xxxx-xxxx-xxxx-xxxx-xxxx-xxxx-xxxx-5///-|
Eb|-xxxx-xxxx-----------xxxx-xxxx-----------|

Guitarra 1
eb|-------------------------------------------------------------------------|
Bb|-------------------------------------------------------------------------|
Gb|-----11p9-11-12-----------------/14-14-12--/11-11-9-11/12-12h14p12-12-11~|
Db|-/12------------14/12-xx12-xxx-------------/12---------------------------|
Ab|-------------------------------------------------------------------------|
Eb|-------------------------------------------------------------------------|

Violin..
Que increible es, que no exista manera que en mi vida entera yo me pueda equivocar.
Que increible es, tener control de todo que no exista modo que algo me pueda salir mal.

Outro
Guitarra 1
Forza una vez mas, trata una vez mas, de no enamorarte, al pensar en mi.
Al verme sonreir, no quiero que te espantes, no quiero ser hostil.
Puede ser fatal, forzar una vez mas, tratar una vez mas, de no enamorarte al pensar en mi.
Al verme sonreir, no quiero que te espantes, no quiero ser hostil.
eb|-------------------------------------|     |-----|
Bb|-------------------------------------|     |-----|
Gb|-------------------55555555-77777777-| x4  |-----|
Db|-22222222-55555555-55555555-77777777-|     |-2~~~|
Ab|-22222222-55555555-33333333-55555555-|     |-2~~~|
Eb|-00000000-33333333-------------------|     |-0~~~|

Guitarra 2 lo del intro

Fuente: Tusacordes