a b c d e f g h i j k l m n o p q r s t u v w x y z 0-9

Estoy Más Solo Que Ayer, Pero Menos Que Mañana

Panda

			
intro con un poco de eco

e|----------------------------------|
B|-6-7-6-7-6-7-6-7-6-6-6-7-7-6-6-6--|
G|----------------------------------|
D|----------------------------------| X 2
A|-6-6-6-6--------------------------|
E|---------6-6-6-6-6-6-6-6-6-6-6-6--|

Ambas guitarrasdistorcion suave
e|--------------------------------------------|
B|--------------------------------------------|
G|-9-9-9-9--4/6-6-6-6--3/4-4-4-4--6/7-7-7-7---
D|-x-x-x-x--x/x-x-x-x--x/x-x-x-x--x/x-x-x-x---| x 4
A|-7-7-7-7--2/4-4-4-4--1/2-2-2-2--4/5-5-5-5---
E|--------------------------------------------

 A LA 3º VEZ LA 2º GUITARRA HACE ESTO
e|-------------------------------------------------------|
B|-------------------------------------------------------|
G|-9-9-9-9--14/16-16-16-16--10/11111111--16/17-17-17-17--
D|-x-x-x-x--x-/x--x--x--x---x/-x-x-x-x---x/-x--x--x--x---| x 2
A|-7-7-7-7--12/14-14-14-14--8/-9-9-9-9---14/15-15-15-15--
E|-------------------------------------------------------


versos 1 y 2

1era guitarra

e|----------------------------------|
B|-6-7-6-7-6-7-6-7-6-6-6-7-7-6-6-6--|
G|----------------------------------|
D|----------------------------------|
A|-6-6-6-6--------------------------|
E|---------6-6-6-6-6-6-6-6-6-6-6-6--|

2da guitarra semi muteada

e|-----6-------6-------7-------7-------6-----6--------7------7--|
B|-4-4---4-------------------------4-4--------------------------|
G|---------3-3---3-4-4---4-4-4--4--------3-3---3--4-4--4-4-4--4-|
D|--------------------------------------------------------------|
A|--------------------------------------------------------------|
E|--------------------------------------------------------------|


1ra Guitarra
e|-0------0--3-|
B|-1------1--3-|
G|-2------0--0-|
D|-2------2--0-|
A|-0------3--2-|
E|-----------3-|

Coro:
Ambas Guitarra
e|-------------------------------------------------------|
B|-------------------------------------------------------|
G|--------------44444-44444-4-55555-55555-5-22222-22222-2|
D|44444-44444-4-44444-44444-4-55555-55555-5-22222-22222-2| x2
A|44444-44444-4-22222-22222-2-33333-33333-3-00000-00000-0|
E|22222-22222-2------------------------------------------|


versos 1 y 2

1era guitarra

e|----------------------------------|
B|-6-7-6-7-6-7-6-7-6-6-6-7-7-6-6-6--|
G|----------------------------------|
D|----------------------------------|
A|-6-6-6-6--------------------------|
E|---------6-6-6-6-6-6-6-6-6-6-6-6--|

2da guitarra semi muteada

e|-----6-------6-------7-------7-------6-----6--------7------7--|
B|-4-4---4-------------------------4-4--------------------------|
G|---------3-3---3-4-4---4-4-4--4--------3-3---3--4-4--4-4-4--4-|
D|--------------------------------------------------------------|
A|--------------------------------------------------------------|
E|--------------------------------------------------------------|


1ra Guitarra
e|-0------0--3-|
B|-1------1--3-|
G|-2------0--0-|
D|-2------2--0-|
A|-0------3--2-|
E|-----------3-|

Coro:
Ambas Guitarra
e|-------------------------------------------------------|
B|-------------------------------------------------------|
G|--------------44444-44444-4-55555-55555-5-22222-22222-2|
D|44444-44444-4-44444-44444-4-55555-55555-5-22222-22222-2| x2
A|44444-44444-4-22222-22222-2-33333-33333-3-00000-00000-0|
E|22222-22222-2------------------------------------------|


BRIDGE

e|-----6-------6-------7-------7-------6-----6--------7------7--|
B|-4-4---4-------------------------4-4--------------------------|
G|---------3-3---3-4-4---4-4-4--4--------3-3---3--4-4--4-4-4--4-|
D|--------------------------------------------------------------|
A|--------------------------------------------------------------|
E|--------------------------------------------------------------|

Coro:
Ambas Guitarra
e|-------------------------------------------------------|
B|-------------------------------------------------------|
G|--------------44444-44444-4-55555-55555-5-22222-22222-2|
D|44444-44444-4-44444-44444-4-55555-55555-5-22222-22222-2| xMUCHAS VECES
A|44444-44444-4-22222-22222-2-33333-33333-3-00000-00000-0|
E|22222-22222-2------------------------------------------|Fuente: Tus acordes