a b c d e f g h i j k l m n o p q r s t u v w x y z 0-9

El Infame Estar Y No Estar

Panda

			
tunning estandar
intro efecto raro con bateria

2 intro-
guitarra 1:x2
E-------------13----------------------------
B-10-11-10-11---10-11-10-11---10-11-13-11---
G---------------------------12--------------
D-------------------------------------------
A-------------------------------------------
E-------------------------------------------
E-------------13----------------------------
B-10-11-10-11---10-11-10-11----13s15s13-----
G---------------------------12--------------
D-------------------------------------------
A-------------------------------------------
E-------------------------------------------

guitarra 2:tal cual 1 vez
E-------------------------------------------
B-------------------------------------------
G-------------x----------12-12--10/12--12fig.1
D--5----------x----1-----x--x----x-x---x----
A--5----1-----x----1-----10-10---8/10--10---
E--3-------3--x-----------------------------

otra vez pero ahora:
G--8-8--7/8--8---------
D--x-x--x-x--x-----fig.2
A--6-6--5/6--6---------

VERSO:
GUITARRA 1-CASI NO SE OYE
solo ace esto mideo el tiempo en la cancionx4
e---------------3--
b------------------
g--7-----7---------

guitarra 2-
e-------------------------------------------
B-------------------------------------------
G-----3---------------3---------------------
D-5---3--/FIG1/---5---3--/FIG2/-------------
A-5---1-----------5---1---------------------
E-3---------------3-------------------------
CON PALM MUTE
e---------------------------------------------------------
B---------------------------------------------------------
G---------------------333333333--------OTRA-VEZ-AHORA-CON-
D-55555555555555555---333333333-/FIG1/---------/FIG2/-----
A-55555555555555555---111111111---------------------------
E-33333333333333333---------------------------------------

CORO
GUITARRA 1- escucha la cancion para ver el ritmo o n guitar proX2
e-----------------------------------11-11--10-10--------10-10-----
B-11-11--10-11--13-13-11-11--10-------------------13-13-------13--
G-----------------------------------------------------------------
D-----------------------------------------------------------------
A-----------------------------------------------------------------
E-----------------------------------------------------------------

e--------------------------------------------------------------------------
B-11-11--10-11--13-13-11-11--10---------------11-10----10-------10---12----
G----------------------------------12--10/12--------12-----12-10---------11
D------------------------------------------------------------------------11
A--------------------------------------------------------------------------
E--------------------------------------------------------------------------

guitarra2-

e------------------------------------------------------------
B------------------------------------------------------------
G-3333333333333----------------------55555555555555555555555-
D-3333333333333-----3333333333333----55555555555555555555555-
A-1111111111111-----3333333333333----33333333333333333333333-
E-------------------1111111111111----------------------------

e--------------------------------------------------------------------
B--------------------------------------------------------------------
G-3333333333333------------------------------------------------------
D-3333333333333---3333333333333----11111111111111----5555555/3333333-
A-1111111111111---3333333333333----11111111111111----5555555/3333333-
E-----------------1111111111111----------------------3333333/1111111-

e------------------------------------------------------------
B------------------------------------------------------------
G-3333333333333----------------------55555555555555555555555-
D-3333333333333-----3333333333333----55555555555555555555555-
A-1111111111111-----3333333333333----33333333333333333333333-
E-------------------1111111111111----------------------------

e------------------------------------------------------------------
B------------------------------------------------------------------
G-3333333333333--------------------5555555555/1212121210101010---8-
D-3333333333333---3333333333333----5555555555/X-X-X-X-X-X-X-X----X-
A-1111111111111---3333333333333----3333333333/101010108-8-8-8----6-
E-----------------1111111111111------------------------------------

VERSO2:
guitarra 1-x4
e--3----3----------1-----------
b---3----3----3-----1----------
g---------------3--------------

guitarra 2-
IGUAL Q EL VERSO 1

CORO

PUENTE:
GUITARRA1-X4
E-------------13----------------------------
B-10-11-10-11---10-11-10-11---10-11-13-11---
G---------------------------12--------------
D-------------------------------------------
A-------------------------------------------
E-------------------------------------------
E-------------13----------------------------
B-10-11-10-11---10-11-10-11----13s15s13-----
G---------------------------12--------------
D-------------------------------------------
A-------------------------------------------
E-------------------------------------------
GUITARRA 2-DESPUES DE LA SEGUNDA REPETICION DE GUITARRA 1DEJANDO SONAR
e----------------------------------------------
B----------------------------------------------
G------------5-----------5---------------------
D-5--5---1---5--5--5--1--5--1---3---5--1---3---
A-5--5---1---3--5--5--1--3--1---3---5--1---3---SKRATCH CON LA PLUMILLA
E-3--3----------3--3------------1---3------1---
GUITARRA 1  EN EL MIN.2:45  ACIENDO BENDS!!!
E-9-9-9-9-9-9-9-9-9-9-9-9-9-9----
B-9-9-9-9-9-9-9-9-9-9-9-9-9-9----

CORO x2
TERMINA EN LA sostenido

Fuente: tusacordes.com