a b c d e f g h i j k l m n o p q r s t u v w x y z 0-9

El Cuello Perfecto

Panda

			
Recuerden afinar sus guitarras en bem0l!!!!

Intro
Ambas guitarras
eb|----------------------------------------------------------|
Bb|-----3333-33-33------7777-77-77--------12121212-1212-1212-|
Gb|-4-4-4444-44-44--7-7-7777-77-77--12-12-12121212-1212-1212-|
Db|-4-4-4444-44-44--7-7-7777-77-77--12-12-12121212-1212-1212-|
Ab|-2-2-2222-22-22--5-5-5555-55-55--10-10-10101010-1010-1010-|
Eb|----------------------------------------------------------|

Eb|-------------------------|
Bb|-------------------------|
Gb|-11-11--11/12-11--9-9-99-|
Db|-12-12--12/13-12--9-9-99-|
Ab|-9--9---9-/10-9---7-7-77-|
Eb|-------------------------|
X2

Verso 1 guitarra 1 con los mismos acordes
No me sacio quiero más estoy muy incorrecto,
allá afuera ya está oscuro, ya llego el momento

Puente
Trato de aparentar que soy normal y bueno,
serlo es lo que más quiero
Guitarra 2
eb|----------22222222-----------5555555--|
Bb|----------33333333-----------5555555--|
Gb|--4444444444444444---666666666666666--|
Db|--4444444444444444---777777777777777--|
Ab|--2222222222222222---777777777777777--|  x2
Eb|--------------------------------------|


Verso 2 guitarra 1 con los mismos acordes
Esta vida no elegí, ella me escogió a mi
Me hicieron parte de este clan sin mi consentimiento
Guitarra 2 con efecto
eb|-----------------------|
Bb|--------7~--------7~---|
Gb|---7~---6~---7~---6~---|
Db|---9~---7~---9~---7~---|
Ab|---9~---7~---9~---7~---|
Eb|---7~--------7~--------|

Puente igual
Muy atento ahora busco el cuello perfecto, que me de mi alimento

Precoro
Guitarra 2        Violin
eb|-------------|-8~--8-11-10-8-6-|
Bb|-------------|-----------------|
Gb|-------------|-----------------|
Db|-5///--7///--|-----------------|
Ab|-5///--7///--|-----------------|
Eb|-3///--5///--|-----------------|

Coro
Mi hambre no tiene final, me altero mas cuando la veo batear
Guitarra 2
eb|-------------------------------------|
Bb|-------------------------------------|
Gb|----------77777777-------------------|
Db|-99999999-77777777-55555555-77777777-|
Ab|-99999999-55555555-55555555-77777777-|
Eb|-77777777----------33333333-55555555-|

es de noche y ya me voy,
la oscuridad me ayudará a saciar mi ambición
eb|--------------------------------------|------|
Bb|--------------------------------------|------|
Gb|----------77777777----------5555------|------|
Db|-99999999-77777777-55555555-7777-7777-|--9~--|
Ab|-99999999-55555555-55555555-7777-7777-|--9~--|
Eb|-77777777----------33333333------5555-|--7~--|


Intro
Ambas guitarras
eb|----------------------------------------------------------|
Bb|-----3333-33-33------7777-77-77--------12121212-1212-1212-|
Gb|-4-4-4444-44-44--7-7-7777-77-77--12-12-12121212-1212-1212-|
Db|-4-4-4444-44-44--7-7-7777-77-77--12-12-12121212-1212-1212-|
Ab|-2-2-2222-22-22--5-5-5555-55-55--10-10-10101010-1010-1010-|
Eb|----------------------------------------------------------|

Eb|------------------------------|
Bb|------------------------------|
Gb|-11-11--11/12-11--9-9-99--9/0-|
Db|-12-12--12/13-12--9-9-99--9/0-|
Ab|-9--9---9-/10-9---7-7-77--7/0-|
Eb|------------------------------|

Verso batería y bajo
Siempre me visto de negro así camuflajear
pasar desapercibido antes de atacar

Puente igual
Asi como el ser humano ocupa comer, lo que ocupo yo es tomar

Verso guitarra 1 igual que el intro
Por ahí murmuran que yo peco de avaricia,
que a cambio solo doy una simple caricia

Puente guitarra 2 igual
Que mis ojos son profundos eso no es noticia
los colmillos no se quitan
Guitarra 1
eb|-13^~-17~---------------------------13^~-17~----------------|
Bb|---------19-171717171717-17/15-14~----------19-171717171717-|
Gb|------------------------------------------------------------|
Db|------------------------------------------------------------|
Ab|------------------------------------------------------------|
Coro

Solo
Eb|--------------------------------------------------------------------|
Bb|--------------------------------------------------------------12//--|
Gb|--------10^12~-10/8-10~-12-10/8-10h12-10h12-8h10--10^-11^-13^-15//--|
Db|-13^-15-------------------------------------------------------------|
Ab|--------------------------------------------------------------------|

eb|--------------------------------------------------------------|
Bb|--------------------------------------------------------------|
Gb|--------------------------------------------------------------|
Db|--------------------------------------------------------------|
Ab|-2h3h4h5h6h7h8^--5h6h7h8h9h10-7h10-12^--10h12h14~-------------|

eb|-17-15-14h15p14p12-14-12-------------------
Bb|------------------------15h17p15p14-15-12--
Gb|-------------------------------------------
Db|-------------------------------------------
Ab|-------------------------------------------

eb|-------------------14-15-17~ 17t19t17t19t17-|
Bb|14-12h14-15-14-15-17------------------------|
Gb|--------------------------------------------|
Db|--------------------------------------------|
Ab|--------------------------------------------|

Outro
Eb|-14h15p14-------14h15p14--------14h15p14-------17h19p17p15-14h15p14-|
Bb|---------15-17----------15-17-----------15-17-----------------------|
Gb|-----------------------------16~------------------------------------|
Db|--------------------------------------------------------------------|
Ab|--------------------------------------------------------------------|

Eb|-14h15p14-------14h15p14--------14h15p14---------------------14h15h17|
Bb|---------15-17----------15-17-----------15-17--15-15h16-16h18--------|
Gb|-----------------------------16~-------------------------------------|
Db|---------------------------------------------------------------------|
Ab|---------------------------------------------------------------------|

eb-----------------------------------------------------------------|
Bb-1515-14-------------1515-14---------1515-14---------------------|
Gb--------14--------14--------14--------------14----16-14---14^16~-|
Db----------16~---16------------16~-------------16~------16--------|
Ab-----------------------------------------------------------------|

Eb|-14h15p14-------14h15p14--------14h15p14-------1717-17///-|
Bb|---------15-17----------15-17-----------15-17-------------|
Gb|-----------------------------16~--------------------------|
Db|----------------------------------------------------------|
Ab|----------------------------------------------------------|

Fuente: Tusacordes