a b c d e f g h i j k l m n o p q r s t u v w x y z 0-9

Disculpa Los Malos Pensamientos

Panda

			
K PASO POS AQUI DEJANDO ESTA TAB LA COPIE DE UN LADO LA ESTUDIE Y LA CORREGI Y CREO QU NO LE FALTA NADA PERO BNO CHEQUENLA....


Intro

  1|------------------------------------|
  2|------------------------------------|
  3|-4----------------------------------|
  4|-4----------------------------------|
  5|-2----------------------------------|
  6|------------------------------------|
   |                                    |
  1|------------------------------------|
  2|-12-12-12-11-12-16-16-16-14-16-14-12|
  3|------------------------------------|
  4|-9--9--9--8--9--13-13-13-11-13-11-9-|
  5|------------------------------------|
  6|------------------------------------|



  1|------------------------------------|
  2|------------------------------------|
  3|------------------------------------|
  4|-6----------------------------------|
  5|-6----------------------------------|
  6|-4----------------------------------|
   |                                    |
  1|------------------------------------|
  2|-12-12-12-11-12-16-16-16-14-16-14-12|
  3|------------------------------------|
  4|-9--9--9--8--9--13-13-13-11-13-11-9-|
  5|------------------------------------|
  6|------------------------------------|


  1|------------------------------------|
  2|------------------------------------|
  3|------------------------------------|
  4|-2----------------------------------|
  5|-2----------------------------------|
  6|-0----------------------------------|
   |                                    |
  1|------------------------------------|
  2|-12-12-12-11-12-16-16-16-14-16-14-12|
  3|------------------------------------|
  4|-9--9--9--8--9--13-13-13-11-13-11-9-|
  5|------------------------------------|
  6|------------------------------------|


  1|-----------------------------------------------|
  2|-----------------------------------------------|
  3|-----------------------------------------------|
  4|-4---------------------------------------------|
  5|-4---------------------------------------------|
  6|-2---------------------------------------------|
   |                                               |
  1|-----------------------------------------------|
  2|-12-11-11--12-12-12-14-12--11-12-16-16--14--12-|
  3|-----------------------------------------------|
  4|-9--8--8---9?-9?-9--11--9--8?-9--13-13--11--9--|
  5|-----------------------------------------------|
  6|-----------------------------------------------|


Estas manos de rojo estan manchadas por
Todas las veces que yo en mis sueños
Te he asesinado con tanta pasion

   Enjuagaremos  aquellas  veces  que  dijiste que me amabas un poco de
  1|------------------------------------|---------------------------------|
  2|------------------------------------|---------------------------------|
  3|------------------------------------|---------------------------------|
  4|------------------------------------|---------------------------------|
  5|--999--9-7-66-7-6--999--9-7-66-7-6--|-666?-9-7-66-7-6?-666?9-7-66-7-6-|
  6|--777--------------777--------------|-444--------------444------------|
 PM|  ..       .       ..       .       | ..       .       ..             |


   Veneno y aguarrras                  sumergete un poco mas
  1|------------------------------------|---------------------------------|
  2|------------------------------------|---------------------------------|
  3|------------------------------------|---------------------------------|
  4|------------------------------------|---------------------------------|
  5|--777--9-7-66-7-6--777--9-7-66-7-6--|-444--9-7-66-7-6--444--9-7-66-7-6|
  6|--777--------------777--------------|-222--------------222------------|
 PM|  ..       .       ..       .       | ..       .       ..       .     |


X q tu  muerta  ya  estas  muerta  esta-
  1|------------------------------------|
  2|------------------------------------|
  3|-4----------------------------------|
  4|-4----------------------------------|
  5|-2----------------------------------|
  6|------------------------------------|
   |                                    |
  1|------------------------------------|
  2|-12-12-12-11-12-16-16-16-14-16-14-12|
  3|------------------------------------|
  4|-9--9--9--8--9--13-13-13-11-13-11-9-|
  5|------------------------------------|
  6|------------------------------------|

   ras  puedes  estar  tranquila  pues
  1|------------------------------------|
  2|------------------------------------|
  3|------------------------------------|
  4|-6----------------------------------|
  5|-6----------------------------------|
  6|-4----------------------------------|
      |                                 |
  1|------------------------------------|
  2|-12-12-12-11-12-16-16-16-14-16-14-12|
  3|------------------------------------|
  4|-9--9--9--8--9--13-13-13-11-13-11-9-|
  5|------------------------------------|
  6|------------------------------------|


    Solo  en  sueños   me  atrevo   a  ma-
  1|------------------------------------|
  2|------------------------------------|
  3|------------------------------------|
  4|-2----------------------------------|
  5|-2----------------------------------|
  6|-0----------------------------------|
   |                                    |
  1|------------------------------------|
  2|-12-12-12-11-12-16-16-16-14-16-14-12|
  3|------------------------------------|
  4|-9--9--9--8--9--13-13-13-11-13-11-9-|
  5|------------------------------------|
  6|------------------------------------|

    taaaaaaaaaar
  1|-----------------------------------------------|
  2|-----------------------------------------------|
  3|-----------------------------------------------|
  4|-4---------------------------------------------|
  5|-4---------------------------------------------|
  6|-2---------------------------------------------|
   |                                               |
  1|-----------------------------------------------|
  2|-12-11-11--12-12-12-14-12--11-12-16-16--14--12-|
  3|-----------------------------------------------|
  4|-9--8--8---9?-9?-9--11-9---8--9--13-13--11--9--|
  5|-----------------------------------------------|
  6|-----------------------------------------------|


Puente
  1|------------------------------------|---------------------------------|
  2|------------------------------------|---------------------------------|
  3|------------------------------------|---------------------------------|
  4|------------------------------------|---------------------------------|
  5|--999--9-7-66-7-6--999--9-7-66-7-6--|-666?-9-7-66-7-6?-666?9-7-66-7-6-|
  6|--777--------------777--------------|-444--------------444------------|
 PM|  ..       .       ..       .       | ..       .       ..             |


  1|------------------------------------|----------------------------|
  2|------------------------------------|----------------------------|
  3|------------------------------------|-15-15-15-15-15-15-15-15-15-|
  4|------------------------------------|----------------------------|
  5|--777--9-7-66-7-6--777--9-7-66-7-6--|-13-13-13-13-13-13-13-13-13-|
  6|--777--------------777--------------|----------------------------|
 PM|  ..       .       ..       .       |                            |



     Olvidaremos      todos esos momentos que juntos pasamos te juro que yo
  1|------------------------------------|---------------------------------|
  2|------------------------------------|---------------------------------|
  3|------------------------------------|---------------------------------|
  4|------------------------------------|---------------------------------|
  5|--999--9-7-66-7-6--999--9-7-66-7-6--|-666?-9-7-66-7-6?-666?9-7-66-7-6-|
  6|--777--------------777--------------|-444--------------444------------|
 PM|  ..       .       ..       .       | ..       .       ..             |


     No   podre   olvidar  pues   la  venganza  es  prioridaaaaaaad
  1|------------------------------------|---------------------------------|
  2|------------------------------------|---------------------------------|
  3|------------------------------------|---------------------------------|
  4|------------------------------------|---------------------------------|
  5|--777--9-7-66-7-6--777--9-7-66-7-6--|-444--9-7-66-7-6--444--9-7-66-7-6|
  6|--777--------------777--------------|-222--------------222------------|
 PM|  ..       .       ..       .       | ..       .       ..       .     |


  Celebraremos  que   todo  termino  con  un vodka barato si quieres
  1|------------------------------------|---------------------------------|
  2|------------------------------------|---------------------------------|
  3|-4----------------------------------|---------------------------------|
  4|-4----------------------------------|-6-------------------------------|
  5|-2----------------------------------|-6-------------------------------|
  6|------------------------------------|-4-------------------------------|

 cerveza si quieres  si quieres  un poco maaaaaaaaaaaaas
  1|------------------------------------|---------------------------------|
  2|------------------------------------|---------------------------------|
  3|------------------------------------|---------------------------------|
  4|-2----------------------------------|-4-------------------------------|
  5|-2----------------------------------|-4-------------------------------|
  6|-0----------------------------------|-2-------------------------------|


X q tu  muerta  ya  estas  muerta  esta-
  1|------------------------------------|
  2|------------------------------------|
  3|-4----------------------------------|
  4|-4----------------------------------|
  5|-2----------------------------------|
  6|------------------------------------|
   |                                    |
  1|------------------------------------|
  2|-12-12-12-11-12-16-16-16-14-16-14-12|
  3|------------------------------------|
  4|-9--9--9--8--9--13-13-13-11-13-11-9-|
  5|------------------------------------|
  6|------------------------------------|

   ras  puedes  estar  tranquila  pues
  1|------------------------------------|
  2|------------------------------------|
  3|------------------------------------|
  4|-6----------------------------------|
  5|-6----------------------------------|
  6|-4----------------------------------|
      |                                 |
  1|------------------------------------|
  2|-12-12-12-11-12-16-16-16-14-16-14-12|
  3|------------------------------------|
  4|-9--9--9--8--9--13-13-13-11-13-11-9-|
  5|------------------------------------|
  6|------------------------------------|


    Solo  en  sueños   me  atrevo   a  ma-
  1|------------------------------------|
  2|------------------------------------|
  3|------------------------------------|
  4|-2----------------------------------|
  5|-2----------------------------------|
  6|-0----------------------------------|
   |                                    |
  1|------------------------------------|
  2|-12-12-12-11-12-16-16-16-14-16-14-12|
  3|------------------------------------|
  4|-9--9--9--8--9--13-13-13-11-13-11-9-|
  5|------------------------------------|
  6|------------------------------------|

    taaaaaaaaaar
  1|-----------------------------------------------|
  2|-----------------------------------------------|
  3|-----------------------------------------------|
  4|-4---------------------------------------------|
  5|-4---------------------------------------------|
  6|-2---------------------------------------------|
   |
  1|-----------------------------------------------|
  2|-12-11-11--12-12-12-14-12--11-12-16-16--14--12-|
  3|-----------------------------------------------|
  4|-9--8--8---9?-9?-9--11-9---8--9--13-13--11--9--|
  5|-----------------------------------------------|
  6|-----------------------------------------------|


*aquí como que se alentan los rasgueos*
X q tu  muerta  ya  estas   muerta   estaras  puedes  estar tranquila pues
    lo que pedias yo te lo di lo  que tenia   te   lo    ofreci
  1|----------------------------------|-----------------------------------|
  2|----------------------------------|-----------------------------------|
  3|-4--------------------------------|-----------------------------------|
  4|-4--------------------------------|-6---------------------------------|
  5|-2--------------------------------|-6---------------------------------|
  6|----------------------------------|-4---------------------------------|
   |                                  |                                   |
  1|----------------------------------|-----------------------------------|
  2|-12----11---12---16-----14----16--|-12-----11--12---16----14----16----|
  3|----------------------------------|-----------------------------------|
  4|-9-----8----9----13-----11----13--|-9------8---9----13----11----13----|
  5|----------------------------------|-----------------------------------|
  6|----------------------------------|-----------------------------------|


    Solo  en  sueños   me  atrevo   a  mataaaaaaaaaar
   Ahora            solo          tengo           malos pensamientos
  1|------------------------------------|---------------------------------|
  2|------------------------------------|---------------------------------|
  3|------------------------------------|---------------------------------|
  4|-2----------------------------------|-4-------------------------------|
  5|-2----------------------------------|-4-------------------------------|
  6|-0----------------------------------|-2-------------------------------|
   |                                    |                                 |
  1|------------------------------------|---------------------------------|
  2|-12----11---12---16----14---16------|-12----11-----14-----16----16----|
  3|------------------------------------|---------------------------------|
  4|-9-----8----9----13----11---13------|-9-----8------11-----13----13----|
  5|------------------------------------|---------------------------------|
  6|------------------------------------|---------------------------------|


  *De esta parte no estoy muy seguro*
  1|---------------------------------------------------------------------|
  2|---------------------------------------------------------------------|
  3|---------------------------------------------------------------------|
  4|--9-----13/14?----1311-----11-----13/14?---1311----11----------------|
  5|---------------------------------------------------------------------|
  6|---------------------------------------------------------------------|


De rojo te ves bien
Combina con tus ojos y tu piel
De rojo te ves bien
rojo sangre

*a partir de aquí las dos guitarras hacen lo mismo*
 De rojo te ves bien    rojo te ves bien de rojo te ves bieeen
  1|------------------|-------------------|---------------|------------|
  2|------------------|-------------------|---------------|------------|
  3|-44---------------|-------------------|---------------|------------|
  4|-44---------------|--666--------------|--2-2----------|-4444-------|
  5|-22---------------|--666--------------|--2-2----------|-4444-------|
  6|------------------|--444--------------|--0-0----------|-2222-------|
 PM| ..               |  ...              |  . .            ....


*aquí ya es rasgueo normal*
De rojo te ves bien    rojo te ves bien    de rojo te ves bieeen
  1|------------------|---------------------|--------------|-------------|
  2|------------------|---------------------|--------------|-------------|
  3|-4----------------|---------------------|--------------|-------------|
  4|-4----------------|--6------------------|--2-----------|--4----------|
  5|-2----------------|--6------------------|--2-----------|--4----------|
  6|------------------|--4------------------|--0-----------|--2----------|
 Asi se va hasta el final
 Y termina en
  1|-------|
  2|-------|
  3|---4---|
  4|---4---|
  5|---2---|

Fuente: tusacordes.com