a b c d e f g h i j k l m n o p q r s t u v w x y z 0-9

Cuando No Es Como Deberia Ser

Panda

			
INTRO 1ra Guitarra: Am  F  G  C  G  *2

INTRO 2da Guitarra:
e|----1--1-1-------1--1-1-------1--1-1---------------|
B|----------------------------------------4-3-1------| *2
G|-2-3----------2-3----------2-3----------------3-2--|
D|----------?----------------------------------------|

**1era guitarra rasgueo y 2da guitarra lo puede hacer arpegiado**

  Am           F
Ya no volveremos a hablar
           C             G
Nos volveremos tampoco a ver fue tu decisión
  Am           F                   C
Quise pedirte perdón por tantas cosas
      G
Que ni realice

         Am        F          C            G
          Pero ya no ya lo pensé  Me duele tanto decirlo
e|---1-3-1--------1-3-1---------1-3-1-----------6-6-6-5-5--|
B|---------------------------------------------------------|

     Am          F          C            G
     Pero no se dio  ya lo pensé mi dignidad es primero?
e|---1-3-1--------1-3-1---------1-3-1-----------6-6-6-5-5--|
B|---------------------------------------------------------|

CORO:
  Am       F              G           C    G
        Tal vez     así es mejor    Odiame?
e|-----1-----1-----1-----1-----1-----1-------------|
B|-------------------------------------4-3-1-------|
G|-2-3---2-3---2-3---2-3---2-3---2-3---------3-2---|
D|----------?--------------------------------------|

   Am        F              G            C    G
        Tal vez      así es mejor   Recuerda que fácil es?
e|-----1-----1-----1-----1-----1-----1-------------|
B|-------------------------------------4-3-1-------|
G|-2-3---2-3---2-3---2-3---2-3---2-3---------3-2---|
D|----------?--------------------------------------|

   Am       F              G           C    G
        Tal vez     así es mejor    Odiame?
e|-----1-----1-----1-----1-----1-----1-------------|
B|-------------------------------------4-3-1-------|
G|-2-3---2-3---2-3---2-3---2-3---2-3---------3-2---|
D|----------?--------------------------------------|

   Am        F              G            C    G
        Pues ya      tranquilo estoy     Wuoh?
e|-----1-----1-----1-----1-----1-----1-3-1---------|
B|-----------------------------------------4-3-4-3-|
G|-2-3---2-3---2-3---2-3---2-3---2-3---------------|
D|----------?--------------------------------------|



**1era guitarra rasgueo y 2da guitarra lo puede hacer arpegiado**

Am             F
  Si existe un modo para que tu
       C                G
  Me puedas hacer muy feliz quiero ser feliz
Am       F                     C
  Lo único que tú tienes que hacer
             G
Amor mío es morir

       Am             F            C            G
        Y Lloraré por ti pues esta es la forma mas sencilla para
e|---1-3-1------------1-3-1---------1-3-1------6-6-6-5-5--|
B|--------------------------------------------------------|

  Am                F            C            G
     No pensar en ti poder ahorrar mis lagrimas se terminan?
e|---1-3-1---------1-3-1---------1-3-1-------6-6-6-5-5----|
B|--------------------------------------------------------|

CORO:
  Am       F              G           C    G
        Tal vez     así es mejor    Odiame?
e|-----1-----1-----1-----1-----1-----1-------------|
B|-------------------------------------4-3-1-------|
G|-2-3---2-3---2-3---2-3---2-3---2-3---------3-2---|
D|----------?--------------------------------------|

   Am        F              G            C    G
        Tal vez      así es mejor   Recuerda que fácil es?
e|-----1-----1-----1-----1-----1-----1-------------|
B|-------------------------------------4-3-1-------|
G|-2-3---2-3---2-3---2-3---2-3---2-3---------3-2---|
D|----------?--------------------------------------|

   Am       F              G           C    G
        Tal vez     así es mejor    Odiame?
e|-----1-----1-----1-----1-----1-----1-------------|
B|-------------------------------------4-3-1-------|
G|-2-3---2-3---2-3---2-3---2-3---2-3---------3-2---|
D|----------?--------------------------------------|

   Am        F              G            C    G
        Pues ya      tranquilo estoy     Wuoh?
e|-----1-----1-----1-----1-----1-----1-3-1---------|
B|-----------------------------------------4-3-4-3-|
G|-2-3---2-3---2-3---2-3---2-3---2-3---------------|
D|----------?--------------------------------------|

**Las 2 guitarras hacen rasgueo**

Am    F         C             G
  Ya no quería darte la razón
Am    F         C             G
  Pero quería cambiar tu opinión
Am    F         C             G
  Ya no quería darte la razón
  No me agrada hablarte así, desprecio Me haces tu sentir
Am    F         C             G
  Pero quería cambiar tu opinión
  Multiplícalo por mil, Eso mereces tú de mí

**solo la 2da guitarra**

        Tal vez     así es mejor    Odiame?
e|-----1-----1-----1-----1-----1-----1-------------|
B|-------------------------------------4-3-1-------|
G|-2-3---2-3---2-3---2-3---2-3---2-3---------3-2---|
D|----------?--------------------------------------|

        Tal vez      así es mejor   Recuerda que fácil es?
e|-----1-----1-----1-----1-----1-----1-------------|
B|-------------------------------------4-3-1-------|
G|-2-3---2-3---2-3---2-3---2-3---2-3---------3-2---|
D|----------?--------------------------------------|

**Aquí ya las dos guitarras**

   Am       F              G            C    G
        Tal vez     así es mejor    Odiame?
e|-----1-----1-----1-----1-----1-----1-------------|
B|-------------------------------------4-3-1-------|
G|-2-3---2-3---2-3---2-3---2-3---2-3---------3-2---|
D|----------?--------------------------------------|

   Am        F              G            C    G
        Pues ya      tranquilo estoy     Wuoh?
e|-----1-----1-----1-----1-----1-----1-3-1---------|
B|-----------------------------------------4-3-4-3-|
G|-2-3---2-3---2-3---2-3---2-3---2-3---------------|
D|----------?--------------------------------------|


**este es el final a mi así me salio**

  Am Am F  F F   Am Am F  F F   Am Am F  F F     C C  Em

e|------1--1-1---------1--1-1---------1--1-1---------------|
B|----------------------------------------------4-3-1-3-1--|
G|-2--3----------2--3------------2--3----------------------|
D|----------?----------------------------------------------|
A|----------?----------------------------------------------|
E|---------------------------------------------------------|

  Am Am F  F F   Am Am F  F F   Am Am F  F F    C C C Em Em Am

e|------1--1-1---------1--1-1---------1--1-1----3-1-----------|
B|--------------------------------------------------4--3?4--3-|
G|-2--3----------2--3-----------2--3--------------------------|
D|----------?-------------------------------------------------|
A|----------?-------------------------------------------------|
E|------------------------------------------------------------|

Fuente: tusacordes.com