a b c d e f g h i j k l m n o p q r s t u v w x y z 0-9

Cuando No Es Como Deberia Ser

Panda

			
ps estarola fue laprimer 
cancion que me aprendi

jhossita te amo 

Intro

Guitarra 1
e------2-----2------2-----2------2-----2-------------|
b----------------------------------------5-4-2-------|
g--3-4---3-4----3-4---3-4----3-4---3-4--------4b5-3--|
d----------------------------------------------------|
a----------------------------------------------------|
E----------------------------------------------------|

Guitarra 2
e----------------------------------------------------|
b----------------------------------------------------|
g----------------------------------------------------|
d--6-6-6-6-6-6-2-2-2-2-2-2-2-4-4-4-4-4-4-9-9-9-8-8-8-|
a--6-6-6-6-6-6-2-2-2-2-2-2-2-4-4-4-4-4-4-9-9-9-8-8-8-|
E--4-4-4-4-4-4-0-0-0-0-0-0-0-2-2-2-2-2-2-7-7-7-6-6-6-|

Guitarra 1
e-----2-----2------2-----2------2-----2---------------|
b---------------------------------------5-4-2---------|
g-3-4---3-4----3-4---3-4----3-4---3-4--------4b5-3-4~-|
d-----------------------------------------------------|
a-----------------------------------------------------|
E-----------------------------------------------------|

Guitarra 2
e-----------------------------------------------------|
b-----------------------------------------------------|
g-----------------------------------------------------|
d--6-6-6-6-6-6-2-2-2-2-2-2-2-4-4-4-4-4-9-9-9-8-8-8-6~-|
a--6-6-6-6-6-6-2-2-2-2-2-2-2-4-4-4-4-4-9-9-9-8-8-8-6~-|
E--4-4-4-4-4-4-0-0-0-0-0-0-0-2-2-2-2-2-7-7-7-6-6-6-4~-|


Verso puro bajo y bateria

ya no volveremos a hablar
nos volveremos tampoco a ver fue tu decision
quize pedirte perdon por tantas cosas
que ni realice

        pero ya no     ya lo pense
Guitarra 1 y 2
e-----------------------------------------|
b----9~-7~-9~-7~-9~-7~-9~-7~-9~-7~-9~-7~--|
g----9~-9~-9~-9~-9~-9~-9~-9~-9~-9~-9~-9~--|
d-----------------------------------------|
a-----------------------------------------|
E-----------------------------------------|

        me duele tanto decirlo
Guitarra 1
e-----------------------------------------|
b-----------------12~~--11~~--9~~---------|
g-----------------13~~--13~~--9~~---------|
d-----------------------------------------|
a-----------------------------------------|
E-----------------------------------------|

        pero no se dio   ya lo pense
Guitarra 1 y 2
e-----------------------------------------|
b----9~-7~-9~-7~-9~-7~-9~-7~-9~-7~-9~-7~--|
g----9~-9~-9~-9~-9~-9~-9~-9~-9~-9~-9~-9~--|
d-----------------------------------------|
a-----------------------------------------|
E-----------------------------------------|

           mi dignidad es primero
Guitarra 1
e-----------------------------------------|
b-----------------12~~--11~~--9~~---------|
g-----------------13~~--13~~--9~~---------|
d-----------------------------------------|
a-----------------------------------------|
E-----------------------------------------|



Coro

                 tal vez asi es mejor
Guitarra 1
e------------------------------------------|
b--------19-------19-------19-------19-----|
g--15-16----15-16----15-16----15-16--------|
d------------------------------------------|
a------------------------------------------|
E------------------------------------------|

Guitarra 2
e------------------------------------------|
b------------------------------------------|
g------------------------------------------|
d--6-6-6-6-6-6-6-6-6-2-2-2-2-2-2-2-2-2-4---|
a--6-6-6-6-6-6-6-6-6-2-2-2-2-2-2-2-2-2-4---|
E--4-4-4-4-4-4-4-4-4-0-0-0-0-0-0-0-0-0-2---|

                odiame
Guitarra 1
e------------------------------------------|
b--------19-------19-17-16-14--------------|
g--15-16----15-16-------------16-15--------|
d------------------------------------------|
a------------------------------------------|
E------------------------------------------|

Guitarra 2
e------------------------------------------|
b------------------------------------------|
g------------------------------------------|
d--4-4-4-4-4-4-4-4-9-9-9-9-8-8-8-8-6-------|
a--4-4-4-4-4-4-4-4-9-9-9-9-8-8-8-8-6-------|
E--2-2-2-2-2-2-2-2-7-7-7-7-6-6-6-6-4-------|

           tal vez asi es mejor
Guitarra 1
e------------------------------------------|
b--------19-------19-------19-------19-----|
g--15-16----15-16----16-15----15-16--------|
d------------------------------------------|
a------------------------------------------|
E------------------------------------------|

Guitarra 2
e------------------------------------------|
b------------------------------------------|
g------------------------------------------|
d--6-6-6-6-6-6-6-6-6-2-2-2-2-2-2-2-2-2-4---|
a--6-6-6-6-6-6-6-6-6-2-2-2-2-2-2-2-2-2-4---|
E--4-4-4-4-4-4-4-4-4-0-0-0-0-0-0-0-0-0-2---|

           recuerda que facil es

Guitarra 1
e------------------------------------------|
b--------19-------19-20b21-19-17-16-17-----|
g--15-16----15-16--------------------------|
d------------------------------------------|
a------------------------------------------|
E------------------------------------------|

Guitarra 2
e------------------------------------------|
b------------------------------------------|
g------------------------------------------|
d--4-4-4-4-4-4-4-4----4---4---4---4---4----|
a--4-4-4-4-4-4-4-4--2---2---2---2---2------|
E--2-2-2-2-2-2-2-2-------------------------|
                   pm....................

            tal vez asi es mejor
Guitarra 1
e------------------------------------------|
b--------19-------19-------19-------19-----|
g--15-16----15-16----16-15----15-16--------|
d------------------------------------------|
a------------------------------------------|
E------------------------------------------|

Guitarra 2
e------------------------------------------|
b------------------------------------------|
g------------------------------------------|
d--6-6-6-6-6-6-6-6-6-2-2-2-2-2-2-2-2-2-4---|
a--6-6-6-6-6-6-6-6-6-2-2-2-2-2-2-2-2-2-4---|
E--4-4-4-4-4-4-4-4-4-0-0-0-0-0-0-0-0-0-2---|

                odiame
Guitarra 1
e------------------------------------------|
b--------19-------19-17-16-14--------------|
g--15-16----15-16-------------16-15--------|
d------------------------------------------|
a------------------------------------------|
E------------------------------------------|

Guitarra 2
e------------------------------------------|
b------------------------------------------|
g------------------------------------------|
d--4-4-4-4-4-4-4-4-9-9-9-9-8-8-8-8-6-------|
a--4-4-4-4-4-4-4-4-9-9-9-9-8-8-8-8-6-------|
E--2-2-2-2-2-2-2-2-7-7-7-7-6-6-6-6-4-------|

             pues ya tranquilo
Guitarra 1
e------------------------------------------|
b--------19-------19-------19-------19-----|
g--15-16----15-16----15-16----15-16--------|
d------------------------------------------|
a------------------------------------------|
E------------------------------------------|

Guitarra 2
e------------------------------------------|
b------------------------------------------|
g------------------------------------------|
d--6-6-6-6-6-6-6-6-6-2-2-2-2-2-2-2-2-2-4---|
a--6-6-6-6-6-6-6-6-6-2-2-2-2-2-2-2-2-2-4---|
E--4-4-4-4-4-4-4-4-4-0-0-0-0-0-0-0-0-0-2---|

        estoy         wwwoooooh
Guitarra 1
e------------------------------------------|
b--------19-------19-20b21-19-17-16-17-16~-|
g--15-16----15-16--------------------------|
d------------------------------------------|
a------------------------------------------|
E------------------------------------------|

Guitarra 2
e------------------------------------------|
b------------------------------------------|
g------------------------------------------|
d--4-4-4-4-4-4-4-4-9-9-9-9-9-8-8-8-8-8-6~--|
a--4-4-4-4-4-4-4-4-9-9-9-9-9-8-8-8-8-8-6~--|
E--2-2-2-2-2-2-2-2-7-7-7-7-7-6-6-6-6-6-4~--|


Verso puro bajo y bateria

si existe un modo para que tu
me puedas hacer muy feliz quiero ser feliz
lo unico que tu tienes que hacer
amor mio es morir

      y llorare por ti pues esta es la
Guitarra 1 y 2
e-----------------------------------------|
b----9~-7~-9~-7~-9~-7~-9~-7~-9~-7~-9~-7~--|
g----9~-9~-9~-9~-9~-9~-9~-9~-9~-9~-9~-9~--|
d-----------------------------------------|
a-----------------------------------------|
E-----------------------------------------|

          forma mas sencilla
Guitarra 1
e-----------------------------------------|
b-----------------12~~--11~~--9~~---------|
g-----------------13~~--13~~--9~~---------|
d-----------------------------------------|
a-----------------------------------------|
E-----------------------------------------|

     para no pensar en ti poder ahorrar
e-----------------------------------------|
b----9~-7~-9~-7~-9~-7~-9~-7~-9~-7~-9~-7~--|
g----9~-9~-9~-9~-9~-9~-9~-9~-9~-9~-9~-9~--|
d-----------------------------------------|
a-----------------------------------------|
E-----------------------------------------|

     mis lagrimas se terminaaaaan
Guitarra 1
e-----------------------------------------|
b-----------------12~~--11~~--9~~---------|
g-----------------13~~--13~~--9~~---------|
d-----------------------------------------|
a-----------------------------------------|
E-----------------------------------------|


CoroII se repite lo mismo que en el coro pasado

tal vez asi es mejor odiame
tal vez asi es mejor recuerda que facil es
tal vez asi es mejor odiame
pues ya tranquilo estoy uoh


          ya no queria   darte    la razooon
Guitarra 1
e-------------------------------------------------|
b-------------------------------------------------|
g-------------------------------------------------|
d-2xx-2xx-2xx-2xx-2xx-2xx-2xx-2xx-2xx-4xx-4xx-4xx-|
a-2xx-2xx-2xx-1xx-1xx-1xx-2xx-2xx-2xx-4xx-4xx-4xx-|
E-0xx-0xx-0xx-0xx-0xx-0xx-0xx-0xx-0xx-2xx-2xx-2xx-|

          pero queria   cambiar   tu opiniooooon
Guitarra 1
e-------------------------------------------------|
b-------------------------------------------------|
g-------------------------------------------------|
d-2xx-2xx-2xx-2xx-2xx-2xx-2xx-2xx-2xx-4xx-4xx-4xx-|
a-2xx-2xx-2xx-1xx-1xx-1xx-2xx-2xx-2xx-4xx-4xx-4xx-|
E-0xx-0xx-0xx-0xx-0xx-0xx-0xx-0xx-0xx-2xx-2xx-2xx-|

no me agrada hablarte asi, desprecio
me haces tu sentir, multiplicalo por mil,
eso mereces tu de mi


Interlude

         tal vez   asi  es  mejor     odiame
Guitarra 1
e----------------------------------------------------|
b----------------------------------------------------|
g----------------------------------------------------|
d-6xx-6xx-6xx-6/2xx-2xx-2xx-2/4xx-4xx-4xx-9xx-x-8xx-6|
a-6xx-6xx-6xx-6/2xx-2xx-2xx-2/4xx-4xx-4xx-9xx-x-8xx-6|
E-4xx-4xx-4xx-4/0xx-0xx-0xx-0/2xx-2xx-2xx-7xx-x-6xx-4|
pm..................................................

       tal vez asi es mejor   recuerdas que facil es
Guitarra 1
e----------------------------------------------------|
b----------------------------------------------------|
g----------------------------------------------------|
d-6xx-6xx-6xx-6/2xx-2xx-2xx-2/4xx-4xx-4xx-9-9-9-9-8--|
a-6xx-6xx-6xx-6/2xx-2xx-2xx-2/4xx-4xx-4xx-9-9-9-9-8--|
--4xx-4xx-4xx-6/0xx-0xx-0xx-0/2xx-2xx-2xx-7-7-7-7-6--|
pm.......................................


CoroIII

              tal vez asi es mejor
Guitarra 1
e------------------------------------------|
b--------19-------19-------19-------19-----|
g--15-16----15-16----16-15----15-16--------|
d------------------------------------------|
a------------------------------------------|
E------------------------------------------|

Guitarra 2
e------------------------------------------|
b------------------------------------------|
g------------------------------------------|
d--6-6-6-6-6-6-6-6-6-2-2-2-2-2-2-2-2-2-4---|
a--6-6-6-6-6-6-6-6-6-2-2-2-2-2-2-2-2-2-4---|
E--4-4-4-4-4-4-4-4-4-0-0-0-0-0-0-0-0-0-2---|

                odiame
Guitarra 1
e------------------------------------------|
b--------19-------19-17-16-14--------------|
g--15-16----15-16-------------16-15--------|
d------------------------------------------|
a------------------------------------------|
E------------------------------------------|

Guitarra 2
e------------------------------------------|
b------------------------------------------|
g------------------------------------------|
d--4-4-4-4-4-4-4-4-9-9-9-9-8-8-8-8-6-------|
a--4-4-4-4-4-4-4-4-9-9-9-9-8-8-8-8-6-------|
E--2-2-2-2-2-2-2-2-7-7-7-7-6-6-6-6-4-------|

                    pues ya tranquilo
Guitarra 1
e------------------------------------------|
b--------19-------19-------19-------19-----|
g--15-16----15-16----15-16----15-16--------|
d------------------------------------------|
a------------------------------------------|
E------------------------------------------|

Guitarra 2
e------------------------------------------|
b------------------------------------------|
g------------------------------------------|
d--6-6-6-6-6-6-6-6-6-2-2-2-2-2-2-2-2-2-4---|
a--6-6-6-6-6-6-6-6-6-2-2-2-2-2-2-2-2-2-4---|
E--4-4-4-4-4-4-4-4-4-0-0-0-0-0-0-0-0-0-2---|

        estoy         wwwoooooh
Guitarra 1
e------------------------------------------|
b--------19-------19-20b21-19-17-16-17-16~-|
g--15-16----15-16--------------------------|
d------------------------------------------|
a------------------------------------------|
E------------------------------------------|

Guitarra 2
e------------------------------------------|
b------------------------------------------|
g------------------------------------------|
d--4-4-4-4-4-4-4-4-9-9-9-9-9-8-8-8-8-8-6~--|
a--4-4-4-4-4-4-4-4-9-9-9-9-9-8-8-8-8-8-6~--|
E--2-2-2-2-2-2-2-2-7-7-7-7-7-6-6-6-6-6-4~--|




Outro


Guitarra 1
e------------------------------------------|
b--------19-------19-------19-------19-----|
g--15-16----15-16----16-15----15-16--------|
d------------------------------------------|
a------------------------------------------|
E------------------------------------------|

Guitarra 2
e------------------------------------------|
b------------------------------------------|
g------------------------------------------|
d--6-6-6-6-6-6-6-6-6-2-2-2-2-2-2-2-2-2-4---|
a--6-6-6-6-6-6-6-6-6-2-2-2-2-2-2-2-2-2-4---|
E--4-4-4-4-4-4-4-4-4-0-0-0-0-0-0-0-0-0-2---|

Guitarra 1
e------------------------------------------|
b--------19-------19-17-16-14--------------|
g--15-16----15-16-------------16-15--------|
d------------------------------------------|
a------------------------------------------|
E------------------------------------------|

Guitarra 2
e------------------------------------------|
b------------------------------------------|
g------------------------------------------|
d--4-4-4-4-4-4-4-4-9-9-9-9-8-8-8-8-6-------|
a--4-4-4-4-4-4-4-4-9-9-9-9-8-8-8-8-6-------|
E--2-2-2-2-2-2-2-2-7-7-7-7-6-6-6-6-4-------|

Guitarra 1
e------------------------------------------|
b--------19-------19-------19-------19-----|
g--15-16----15-16----15-16----15-16--------|
d------------------------------------------|
a------------------------------------------|
E------------------------------------------|

Guitarra 2
e------------------------------------------|
b------------------------------------------|
g------------------------------------------|
d--6-6-6-6-6-6-6-6-6-2-2-2-2-2-2-2-2-2-4---|
a--6-6-6-6-6-6-6-6-6-2-2-2-2-2-2-2-2-2-4---|
E--4-4-4-4-4-4-4-4-4-0-0-0-0-0-0-0-0-0-2---|

Guitarra 1
e------------------------------------------|
b--------19-------19-20b21-19-17-16-17-16~-|
g--15-16----15-16--------------------------|
d------------------------------------------|
a------------------------------------------|
E------------------------------------------|

Guitarra 2
e------------------------------------------|
b------------------------------------------|
g------------------------------------------|
d--4-4-4-4-4-4-4-4-9-9-9-9-9-8-8-8-8-8-6~--|
a--4-4-4-4-4-4-4-4-9-9-9-9-9-8-8-8-8-8-6~--|
E--2-2-2-2-2-2-2-2-7-7-7-7-7-6-6-6-6-6-4~--|

Fuente: tusacordes.com