a b c d e f g h i j k l m n o p q r s t u v w x y z 0-9

Cuando No Es Como Deberia Ser

Panda

			
AFINACION EN BEMOL Eb, Ab, Db, Gb, Bb,Eb.

INTRO

GTR1

-0-1-3-0-0-
-1-1-3-1-1-
-2-2-4-0-0-x2     Logico al poner los acordes una vez, no es que
-2-3-5-2-0-         que nadamas le des una vez, es solo para indicar
-0-3-5-3-2-         el acorde y ya tu con el ritmo, sakas las veces...
-0-1-3-0-3-

GTR2

----2----2----2----2----2----2-------------                           ---
-------------------------------5-4-3-------                           ---
-3-4--3-4--3-4--3-4--3-4--3-4--------4/5-4-x2 pero en la segunda    -5-
-------------------------------------------     repeticionse le agrega---
-------------------------------------------     un :                  ---
-------------------------------------------                           ---


VERSOS

GTR1 Y GTR2

-----0-------1-------3------------
--1---1---1---1---3---3---1-1-1-1-
----2--2----2--2----4--4---0---0--
--------2-------3-------5--------- x2
--0-----------------------3-------
----------1-------3-----------3---

EN **** PERO YA NO, YA LO PENSE****

GTR1

-0-1-3-0-0-
-1-1-3-1-1-
-2-2-4-0-0-x2     Logico al poner los acordes una vez, no es que
-2-3-5-2-0-         que nadamas le des una vez, es solo para indicar
-0-3-5-3-2-         el acorde y ya tu con el ritmo, sakas las veces...
-0-1-3-0-3-

GRT2

-5-3-5-3-5-3-5-3-5-3-5-3-7-6-5-
-5-5-5-5-5-5-5-5-5-5-5-5-8-8-8-
------------------------------- x2
-------------------------------
-------------------------------
-------------------------------

CORO

GTR1

-0-1-3-0-0-
-1-1-3-1-1-
-2-2-4-0-0-         Logico al poner los acordes una vez, no es que
-2-3-5-2-0-         que nadamas le des una vez, es solo para indicar
-0-3-5-3-2-         el acorde y ya tu con el ritmo, sakas las veces...
-0-1-3-0-3-

-0-1-3----0-----0-0-
-1-1-3----1-----1-1-
-2-2-4----0-----0-0-
-2-3-5--2-2-----0-0-
-0-3-5-3--3-3-2-2-2-
-0-1-3----0--3--3-3-

-0-1-3-0-0-
-1-1-3-1-1-
-2-2-4-0-0-x2
-2-3-5-2-0-
-0-3-5-3-2-
-0-1-3-0-3-

GRT2

------14-----14-----14-----14-----14-----14-12-11---------
-11-12--11-12--11-12--11-12--11-12--11-12--------14-13-12-
----------------------------------------------------------
----------------------------------------------------------
----------------------------------------------------------
----------------------------------------------------------

------14-----14-----14-----14-----14-----14-14/15-14-12-11-12-
-11-12--11-12--11-12--11-12--11-12--11-12---------------------
--------------------------------------------------------------
--------------------------------------------------------------
--------------------------------------------------------------
--------------------------------------------------------------

------14-----14-----14-----14-----14-----14-12-11---------
-11-12--11-12--11-12--11-12--11-12--11-12--------14-13-12-
----------------------------------------------------------
----------------------------------------------------------
----------------------------------------------------------
----------------------------------------------------------

------14-----14-----14-----14-----14-----14-14/15-14-12-11-12-11-
-11-12--11-12--11-12--11-12--11-12--11-12------------------------
-----------------------------------------------------------------
-----------------------------------------------------------------
-----------------------------------------------------------------
-----------------------------------------------------------------

VERSOS

GTR1 Y GTR2

-----0-------1-------3------------
--1---1---1---1---3---3---1-1-1-1-
----2--2----2--2----4--4---0---0--
--------2-------3-------5--------- x2
--0-----------------------3-------
----------1-------3-----------3---

EN **** Y LLORARE POR TI ...****

GTR1

-0-1-3-0-0-
-1-1-3-1-1-
-2-2-4-0-0-x2     Logico al poner los acordes una vez, no es que
-2-3-5-2-0-         que nadamas le des una vez, es solo para indicar
-0-3-5-3-2-         el acorde y ya tu con el ritmo, sakas las veces...
-0-1-3-0-3-

GRT2

-5-3-5-3-5-3-5-3-5-3-5-3-7-6-5-
-5-5-5-5-5-5-5-5-5-5-5-5-8-8-8-
------------------------------- x2
-------------------------------
-------------------------------
-------------------------------

CORO

GTR1

-0-1-3-0-0-
-1-1-3-1-1-
-2-2-4-0-0-         Logico al poner los acordes una vez, no es que
-2-3-5-2-0-         que nadamas le des una vez, es solo para indicar
-0-3-5-3-2-         el acorde y ya tu con el ritmo, sakas las veces...
-0-1-3-0-3-

-0-1-3----0-----0-0-
-1-1-3----1-----1-1-
-2-2-4----0-----0-0-
-2-3-5--2-2-----0-0-
-0-3-5-3--3-3-2-2-2-
-0-1-3----0--3--3-3-

-0-1-3-0-0-
-1-1-3-1-1-
-2-2-4-0-0-x2
-2-3-5-2-0-
-0-3-5-3-2-
-0-1-3-0-3-

GRT2

------14-----14-----14-----14-----14-----14-12-11---------
-11-12--11-12--11-12--11-12--11-12--11-12--------14-13-12-
----------------------------------------------------------
----------------------------------------------------------
----------------------------------------------------------
----------------------------------------------------------

------14-----14-----14-----14-----14-----14-14/15-14-12-11-12-
-11-12--11-12--11-12--11-12--11-12--11-12---------------------
--------------------------------------------------------------
--------------------------------------------------------------
--------------------------------------------------------------
--------------------------------------------------------------

------14-----14-----14-----14-----14-----14-12-11---------
-11-12--11-12--11-12--11-12--11-12--11-12--------14-13-12-
----------------------------------------------------------
----------------------------------------------------------
----------------------------------------------------------
----------------------------------------------------------

------14-----14-----14-----14-----14-----14-14/15-14-12-11-12-11-
-11-12--11-12--11-12--11-12--11-12--11-12------------------------
-----------------------------------------------------------------
-----------------------------------------------------------------
-----------------------------------------------------------------
-----------------------------------------------------------------

PUENTE

GTR1 Y GTR2

-----------------------------------------------
-----------------------------------------------
-----------------------------------------------
-333333-333-222222-222-333333-333-555555555- x4
-333333-333-222222-222-333333-333-555555555-
-111111-111-111111-111-111111-111-333333333-

SOLO

GTR2

-----0-------1-------3------------
--1---1---1---1---3---3---1-1-1-1-
----2--2----2--2----4--4---0---0--
--------2-------3-------5---------
--0-----------------------3-------
----------1-------3-----------3---

-----0-------1-------3----000-0-
--1---1---1---1---3---3---111-1-
----2--2----2--2----4--4--000-0-
--------2-------3-------5-222-0-
--0-----------------------333-2-
----------1-------3-------000-3-

ULTIMO CORO

GTR 1

-0-1-3-0-0-
-1-1-3-1-1-
-2-2-4-0-0-x2
-2-3-5-2-0-
-0-3-5-3-2-
-0-1-3-0-3-

GTR 2

------14-----14-----14-----14-----14-----14-12-11---------
-11-12--11-12--11-12--11-12--11-12--11-12--------14-13-12-
----------------------------------------------------------
----------------------------------------------------------
----------------------------------------------------------
----------------------------------------------------------

------14-----14-----14-----14-----14-----14-14/15-14-12-11-12-
-11-12--11-12--11-12--11-12--11-12--11-12---------------------
--------------------------------------------------------------
--------------------------------------------------------------
--------------------------------------------------------------
--------------------------------------------------------------

FINAL

GTR1

-0-1-3-0-0-
-1-1-3-1-1-
-2-2-4-0-0-x2
-2-3-5-2-0-
-0-3-5-3-2-
-0-1-3-0-3-

GTR2

------14-----14-----14-----14-----14-----14-12-11---------
-11-12--11-12--11-12--11-12--11-12--11-12--------14-13-12-
----------------------------------------------------------
----------------------------------------------------------
----------------------------------------------------------
----------------------------------------------------------

------14-----14-----14-----14-----14-----14-14/15-14-12-11-12-11-
-11-12--11-12--11-12--11-12--11-12--11-12------------------------
-----------------------------------------------------------------
-----------------------------------------------------------------
-----------------------------------------------------------------
-----------------------------------------------------------------


ACORDE FINAL

GRT1 Y GTR 2

-0-
-1-
-2-
-2-
-0-
-0-

Fuente: tusacordes.com