a b c d e f g h i j k l m n o p q r s t u v w x y z 0-9

Cuando No Es Como Deberia Ser

Panda

G#m
E
B
F#
			
 
ESTA UN POCO DIFICIL PERO SALE CHEQUEENLA BIEN.......
Intro

Gtr1

E-----------------|--------------|
A-----------------|--------------|
D-----------------|--------------|
G-3-4---4-3-4-----|-3-4---4-3?3--|
B-----------------|--------------|
E------2----------|-----2--------|

E-------------|--------------|
A-------------|--------------|
D-------------|--------------|
G-3-4---4-3-4-|---------4----|
B-------------|-----4-2------|
E-----2-------|-2?0----------|2x
Gtr2

G#m   E   B    F#

Verso 1

G#m       E
Ya no volveremos a hablar
         B                F#            G#m
Nos volveremos tampoco a ver [fue tu decision]
          E                     B
Quise pedirte perdon por tantas cosas
           F#
Que ni realice

G#m      E           B
Pero ya no, ya lo pense
          F#
Me duele tanto decirlo
G#m         E
Pero no se dio
         B
Ya lo pense
          F#          G#m
Mi dignidad es primero!

Coro

Gtr1

E------------------|-------------------|
A------------------|-------------------|
D------------------|-------------------|
G-15-16---16-15-16-|-15-16---16-15?16--|
B------------------|-------------------|
E------14----------|-------14----------|

E------------------|------------------|
A------------------|------------------|
D------------------|------------------|
G-15-16---16-15-16-|---------------16-|
B------------------|--------16--14----|
E-------14---------|-14?12------------|


E------------------|-------------------|
A------------------|-------------------|
D------------------|-------------------|
G-15-16---16-15-16-|-15-16---16-15?16--|
B------------------|-------------------|
E------14----------|-------14----------|

E------------------|------------------|
A------------------|------------------|
D------------------|------------------|
G-15-16---16-15-16-|------------------|
B------------------|------------------|
E-------14---------|-1415-14-12-11-12|

EE-----------------|-------------------|
A------------------|-------------------|
D------------------|-------------------|
G-15-16---16-15-16-|-15-16---16-15?16--|
B------------------|-------------------|
E------14----------|-------14----------|

E------------------|------------------|
A------------------|------------------|
D------------------|------------------|
G-15-16---16-15-16-|---------------16-|
B------------------|--------16--14----|
E-------14---------|-14?12------------|


E------------------|-------------------|
A------------------|-------------------|
D------------------|-------------------|
G-15-16---16-15-16-|-15-16---16-15?16--|
B------------------|-------------------|
E------14----------|-------14----------|

E------------------|----------------------|
A------------------|----------------------|
D------------------|----------------------|
G-15-16---16-15-16-|----------------------|
B------------------|----------------------|
E-------14---------|-1415-14-12-11-12-11~|

Gtr2 [Se toca junto con guitarra 1]

E                F#
Tal vez asi es mejor
      B   F#   G#m
odiame
E                F#
Tal vez asi es mejor
       B      F#       G#m
Recuerda que facil es
E                F#
Tal vez asi es mejor
     B   F#      G#m
Odiame
                   E     F#
Pues ya tranquilo estoy uuo-o-o-oh

Verso 2

G#m            E
Si, existe un modo para que tu
    B                  F#                G#m
me puedas hacer muy feliz[quiero ser feliz]
       E                      B
lo unico que tu tienes que hacer
               F#
amor mio es morir
G#m            E
y llorare por ti,
           B            F#
pues esta es, la forma mas sencilla
      G#m          E
para no pensar en ti
           B             F#             G#m
poder ahorrar, mis lagrimas se terminan!


Coro

Gtr1

E------------------|-------------------|
A------------------|-------------------|
D------------------|-------------------|
G-15-16---16-15-16-|-15-16---16-15?16--|
B------------------|-------------------|
E------14----------|-------14----------|

E------------------|------------------|
A------------------|------------------|
D------------------|------------------|
G-15-16---16-15-16-|---------------16-|
B------------------|--------16--14----|
E-------14---------|-14?12------------|


E------------------|-------------------|
A------------------|-------------------|
D------------------|-------------------|
G-15-16---16-15-16-|-15-16---16-15?16--|
B------------------|-------------------|
E------14----------|-------14----------|

E------------------|------------------|
A------------------|------------------|
D------------------|------------------|
G-15-16---16-15-16-|------------------|
B------------------|------------------|
E-------14---------|-1415-14-12-11-12|

E------------------|-------------------|
A------------------|-------------------|
D------------------|-------------------|
G-15-16---16-15-16-|-15-16---16-15?16--|
B------------------|-------------------|
E------14----------|-------14----------|

E------------------|------------------|
A------------------|------------------|
D------------------|------------------|
G-15-16---16-15-16-|---------------16-|
B------------------|--------16--14----|
E-------14---------|-14?12------------|


E------------------|-------------------|
A------------------|-------------------|
D------------------|-------------------|
G-15-16---16-15-16-|-15-16---16-15?16--|
B------------------|-------------------|
E------14----------|-------14----------|

E------------------|----------------------|
A------------------|----------------------|
D------------------|----------------------|
G-15-16---16-15-16-|----------------------|
B------------------|----------------------|
E-------14---------|-1415-14-12-11-12-11~|


Gtr2 [Se toca junto con guitarra 1]

E                F#
Tal vez asi es mejor
      B   F#   G#m
odiame
E                F#
Tal vez asi es mejor
       B      F#       G#m
Recuerda que facil es
E                F#
Tal vez asi es mejor
     B   F#      G#m
Odiame
                   E     F#
Pues ya tranquilo estoy uuo-o-o-oh

Verso 3

G#m       E           B   F#
ya no queria darte la razon
G#m       E           B   F#
pero queria cambiar tu opinion
 [no me agrada hablarte asi, desprecio
me haces tu sentir, multiplicalo por mil,
eso mereces tu de mi]

Coro

Gtr2

E                F#
Tal vez asi es mejor
      B   F#   G#m
odiame
E                F#
Tal vez asi es mejor
       B      F#       G#m
Recuerda que facil es [Entra Guitarra 1]
E                F#
Tal vez asi es mejor
     B   F#      G#m
Odiame
                   E     F#
Pues ya tranquilo estoy uuo-o-o-oh

Gtr1 [Entra en el coro donde se indica]

E------------------|-------------------|
A------------------|-------------------|
D------------------|-------------------|
G-15-16---16-15-16-|-15-16---16-15?16--|
B------------------|-------------------|
E------14----------|-------14----------|

E------------------|------------------|
A------------------|------------------|
D------------------|------------------|
G-15-16---16-15-16-|---------------16-|
B------------------|--------16--14----|
E-------14---------|-14?12------------|


E------------------|-------------------|
A------------------|-------------------|
D------------------|-------------------|
G-15-16---16-15-16-|-15-16---16-15?16--|
B------------------|-------------------|
E------14----------|-------14----------|

E------------------|------------------|
A------------------|------------------|
D------------------|------------------|
G-15-16---16-15-16-|------------------|
B------------------|------------------|
E-------14---------|-1415-14-12-11-12|


Gtr2

G#m   E   B    F#


G#m   E   B    F#


Gtr1 [Con guitarra 2]


E------------------|-------------------|
A------------------|-------------------|
D------------------|-------------------|
G-15-16---16-15-16-|-15-16---16-15?16--|
B------------------|-------------------|
E------14----------|-------14----------|

E------------------|------------------|
A------------------|------------------|
D------------------|------------------|
G-15-16---16-15-16-|---------------16-|
B------------------|--------16--14----|
E-------14---------|-14?12------------|


E------------------|-------------------|
A------------------|-------------------|
D------------------|-------------------|
G-15-16---16-15-16-|-15-16---16-15?16--|
B------------------|-------------------|
E------14----------|-------14----------|

E------------------|----------------------|
A------------------|----------------------|
D------------------|----------------------|
G-15-16---16-15-16-|----------------------|
B------------------|----------------------|
E-------14---------|-1415-14-12-11-12-11~|

ESTA MUY BUENA Y UN POCO DIFICIL CUALQUIER COSA MI EMAIL ANTHONYPAPICHULO@HOTMAIL.COM SE CUIDAN Y SALUDOS A LA BANDA Q ESCUCHA PANDA.......... 

Fuente: tusacordes.com