a b c d e f g h i j k l m n o p q r s t u v w x y z 0-9

Conversación Casual

Panda

			
e/--7-7-7--9-9-9----------------7-7-9-9----
b/----------------8-8-8--9-9-9-------------
g/-----------------------------------------
d/-----------------------------------------
a/-----------------------------------------
e/-----------------------------------------

e/--7-7-7--9-9-9----------------7-7-9-9----
b/----------------8-8-8--9-9-9-------------
g/-----------------------------------------
d/-----------------------------------------
a/-----------------------------------------
e/-----------------------------------------

e/--7-7-7--9-9-9----------------7-7-9-9----
b/----------------8-8-8--9-9-9-------------
g/-----------------------------------------
d/-----------------------------------------
a/-----------------------------------------
e/-----------------------------------------

e/--7-7-7--9-9-9----------------11-11--12-12---
b/----------------8-8-8--9-9-9-----------------
g/---------------------------------------------
d/---------------------------------------------
a/---------------------------------------------
e/---------------------------------------------

e/--7-7-7--9-9-9----------------7-7--9-9---
b/----------------8-8-8--9-9-9-------------
g/-----------------------------------------
d/-----------------------------------------
a/-----------------------------------------
e/-----------------------------------------

e/--7-7-7-----------------
b/---------9-9-9--10-10-10--9-9-9--10-10--9-9--
g/-----------------------------------------
d/-----------------------------------------
a/-----------------------------------------
e/-----------------------------------------

Fuente: Tusacordes