a b c d e f g h i j k l m n o p q r s t u v w x y z 0-9

Como Cuando Teniamos 16

Panda

			
INTRO
LES VOY A CONTAR LA HISTORIA…”

G |---------------------|
D |----------2h3~~~--|
A |---------------------|     X4
E |0GOLPE----------|

AMIGO VEN TE INVITO UNA COPA...”

G |------------------------------------------|
D |------------------------------------------|
A |------------------------------------------|
E |-3—3-3---3—3-3---3—3-3---3—3-3--|

G |------------------------------------------|
D |------------------------------------------|
A |------------------------------------------|
E |-5—5-5---5—5-5---7—7-7---7—7-7--|

G |--------------------------------------------------|
D |-----------3h5-----------------------------------|
A |------3h5------3h5------------------------------|
E |-3h5----------------3h5--------0-------0-------|

BIEN DIME QUE HA PASADO CON TU ESPOSA...”

G |------------------------------------------|
D |------------------------------------------|
A |------------------------------------------|
E |-3—-3-3---3—-3-3---3—-3-3---3—-3-3--|


G |------------------------------------------|
D |------------------------------------------|
A |------------------------------------------|
E |-5—-5-5---5—-5-5---7—-7-7---7—-7-7--|

G |--------------------------------------------------|
D |-----------3h5-----------------------------------|
A |------3h5------3h5------------------------------|
E |-3h5----------------3h5--------0-------0-------|


LLEVAMOS JUNTOS SERENATA...”

G |----------------------------------------------------------------------------|
D |----------------------------------------------------------------------------|
A |------------------3-----------------3------------------------------|
E |---0-3----55-3--5---5-3--0-3—55-3—5---5-3--0-3--33—3—55-3-5-|

EN EL PEQUEÑO PUENTE SE TOCA ESTO

G |---------------------|
D |---------------------|
A |----------3-------|
E |--55-3--5---5-3-5-|

LLEVAMOS JUNTOS SERENATA...”

G |---------------------------------------------------------------------------|
D |---------------------------------------------------------------------------|
A |-----------------3-----------------3-------------------------------|
E |---0-3---55-3--5---5-3--0-3—55-3—5---5-3--0-3--33—3—55-3-5-|

EN EL 2do. PEQUEÑO PUENTE ANTES DE QUE ENTRE LA LIRA SE TOCA:

G |-------------------|
D |------------------|
A |----------3-----|
E |--55-3--5---5-3-|

CUANDO ENTRA LA LIRA:


G |-----------------------------------------------|
D |-----------------------------------------------|
A |-----------------3---------------------------|
E |---0-3---55-3--5---5-3-5----0-3--0—3---5|

SOLO POR SER MI AMIGO...”

G |------------------------------------------|
D |------------------------------------------|
A |------------------------------------------|
E |-3-—3-3---3—-3-3---3-—3-3---3—-3-3--|

G |------------------------------------------|
D |------------------------------------------|
A |------------------------------------------|
E |-5—-5-5---5—-5-5---7—-7-7---7-—7-7--|

G |--------------------------------------------------|
D |-----------3h5-----------------------------------|
A |------3h5------3h5------------------------------|
E |-3h5----------------3h5--------0-------0-------|

LLEVEMOS JUNTOS SERENATA...”

G |---------------------------------------------------------------------------|
D |---------------------------------------------------------------------------|
A |-----------------3-----------------3------------------------------|
E |---0-3---55-3--5---5-3--0-3—55-3—5---5-3--0-3--33—3—55-3-5-|


COMO CUANDO TENIAMOS 16

G |----------------------------|
D |----------------------------|
A |-----------------3--------|
E |---0-3---55-3--5---5-3---|

LLEVAMOS JUNTOS SERENATA...”

G |---------------------------------------------------------------------------|
D |---------------------------------------------------------------------------|
A |-----------------3-----------------3------------------------------|
E |---0-3---55-3--5---5-3--0-3—55-3—5---5-3--0-3--33—3—55-3-5-|

COMO CUANDO TENIAMOS 16

G |------------------------------------------------------------------------------------|
D |-----------------------------------------------------------------------------------|
A |-----------------3-----------------3----------------------3---------------|
E |---0-3---55-3--5---5-3--0-3—55-3—5---5-3--0-3--55-3—5---5-3--0--3--0|Fuente: Tus acordes