a b c d e f g h i j k l m n o p q r s t u v w x y z 0-9

Como Cuando Teniamos 16

Panda

			
INTRO
1----------------------------
2----------------------------
3----------------------------Esto va 4 veces
4-7--------------------------
5-5-/-7-/-9------------------
6----------------------------

Amigo ven te.......
1----------------------------
2----------------------------
3----------------------------
4-7-x14--------------------
5-5-------7-x7-5-x7------
6---------5------3-----------

Despues va esto
1----------------------------
2----------------------------
3----------------------------
4-7-----------------7-let ring
5-5-7-9-9-7-5-5-7-7-5--------
6---5-7-7-5-3-3-5-5----------

Bien dime que a pasado......
1----------------------------
2----------------------------
3----------------------------
4-7-x14--------------------
5-5-------7-x7-5-x7------
6---------5------3-----------

Despues va esto
1----------------------------
2----------------------------
3----------------------------
4-7-----------------7-let ring
5-5-7-9-9-7-5-5-7-7-5--------
6---5-7-7-5-3-3-5-5----------

Llevemos juntos.....Coro
1----------------------------
2----------------------------
3----------------------------Esto va 2 veces
4---------------7---7---7----
5-5-x4-7-x4-5-7-5-7-5-7--
6-3------5--------5---5---5--

Despues va esto
1----------------------------
2----------------------------
3----------------------------
4-7-----------------7--------Todo el coro x2 
5-5-7-9-9-7-5-5-7-7-5--------
6---5-7-7-5-3-3-5-5----------

Solo
1-------------------------------------
2---------------2h4-2h4-2h4-2h4-4-2---
3-6-6-6-8-8-8-8-----------------------
4-------------------------------------
5-------------------------------------
6-------------------------------------

Despues sigue esto
1-------------------------------------
2---------------6---------------------
3-------------6---8-6-----------------
4-6h8-6h8-6h8---------7---------------
5---------------------5-7-9-----------
6-----------------------5-7-----------

Solo por ser.......
1----------------------------
2----------------------------
3----------------------------
4-7-x14--------------------
5-5-------7-x7-5-x7------
6---------5------3-----------

Despues va esto
1----------------------------
2----------------------------
3----------------------------
4-7-----------------7-let ring
5-5-7-9-9-7-5-5-7-7-5--------
6---5-7-7-5-3-3-5-5----------

En la parte que dice:como cuando teniamos 16 
es igual que el coro

se acaba asi
1-----------
2-----------
3-----------
4-7-let ring
5-5---------
6-----------Fuente: Tus acordes