a b c d e f g h i j k l m n o p q r s t u v w x y z 0-9

Claro Que No

Panda

			
NOTA: Esta es la que esta 100 Bien
INTRO

E---8h9p8-6-------------------------------
B-----------9-7-6-7-6-4-2-----------------
G-----------------------------------------
D-----------------------------------------
A-----------------------------------------
E-----------------------------------------

E---8h9p8-6-------------------------------
B-----------9-7-6-7-6-4-------------------
G-----------------------------------------
D-----------------------------------------
A-----------------------------------------
E-----------------------------------------


E---8h9p8-6-------------------------------
B-----------9-7-6-7-6-4-2-----------------
G-----------------------------------------
D-----------------------------------------
A-----------------------------------------
E-----------------------------------------

E-----------------------------------------
B---6-4-6-4-2-4-2...----------------------
G-----------------------------------------
D-----------------------------------------
A-----------------------------------------
E-----------------------------------------




ESTROFA
*= PM

E-------------------------------------------
B-------------------------------------------
G--6-666666-8-888888--------------8-6-5-6---
D--6-666666-8-888888--4-444444-6--8-6-5-6---
A--4-444444-6-666666--4-444444-6--6-4-3-4---
E---------------------2-222222-4------------
     ******   ******    ******


Claro que no, no puede ser, eso jamas va suceder
De lo contrario no seria fiel, porqué

E-------------------------------------------
B-------------------------------------------
G-66666666-8888888--------------------------
D-66666666-8888888-44444444-66666666--------
A-44444444-6666666-44444444-66666666--------
E------------------22222222-44444444--------


Tu no le creas a ese wey, el lo que quiere es joder
Y ahora me mandas por el caño porque , porque


Pre - Estribillo

Gsus5
Y el te mintio, yo te digo que no
Csus5
Pues yo no puedo hacer tal perversion
Gsus5
Seria un mentiroso y ya perdi el sabor
Csus5             Gsus5 Fsus5
No es asi como soy.


ESTRIBILLO
E-------------------------------------------
B-------------------------------------------
G-66666666-8888888--------------------------
D-66666666-8888888-44444444-66666666--------
A-44444444-6666666-44444444-66666666--------
E------------------22222222-44444444-------- X4


E----------------------------
B----------------------------
G----------------------------
D?4...-----------------------
A?4...-----------------------
E?2...-----------------------

Claro que no uho uho uho uho uho uho uho
Uho uho uho uhohhoooooo


INTRO

ESTROFA
NOTA:Todo es IGUAL a la primera


Lo que queria lo logro, separarnos no, no, no
Y yo no entiendo como fue oh noooooo
Te dijo cosas que no son verdad,
Son puros chismes , ¡que tracala!
Ahora solo me quedan ganas de llorar, llorar


Y El te mintio...

ESTRIBILLO

Final :
E---------------9-6-9-----------------
B--6-2-4-6-4-2--------9--6-2-4--------
G-------------------------------------
D-------------------------------------
A-------------------------------------
E-------------------------------------

Fuente: tusacordes.com