a b c d e f g h i j k l m n o p q r s t u v w x y z 0-9

Cita En El Quirofano

Panda

			
akii les dejo sta rola ke esta chida
y es mui facil i suena mejor si la tokas
kon púa porke es rapida y
estoy seguro ke esta es mejor porke a la anterior
le asian falta algunos adornos
bueno ps akee sta...
por sierto esta kancion la sake kon el bajo afinado
en la entonacion normal asike si lo tinen en bemol
solo token la cancion un traste arriba osea si es
en el 4 en el 5...

intro
G|-------------------------------------------------------------|
D|-------------------------------------------------------------|
A|----------------66666-66-66-66-33333-33-33-33-44444-4666-666-|
E|-44444-44-44-44----------------------------------------------| x2

verso
G|-------------------------------------|
D|-------------------------------------|
A|----------66666666-33333333-44446666-|
E|-44444444----------------------------| x3

precoro
G|-----------------------------------|---------------|
D|-----------------------------------|---------------|
A|----------66666666-33333333-444-666|-4444444-------|
E|-44444444--------------------------|---------4-4-4-|

1mer coro
G|-----------------------------|
D|-----------------------------|
A|----------66~66~33~33~44~66~-|
E|-1/44~44~--------------------|

tokar intro
tokar verso
tokar prechoro
tokar intro esto es en el segundo coro

solo d guitarra
G|-----------------------------------------------------------------|
D|-----------------------------------------------------------------|
A|-----------------6-6-6-6-6-6-6-6-3-3-3-3-3-3-3-3-4-4-4-4-6-6-6-6-|
E|-4-4-4-4-4-4-4-4-------------------------------------------------| x2

"robame el dolor...."
G|--------------------------------------------------|
D|--------------------------------------------------|
A|-44444444-66666666-----------33333333-44444444-6~-|
E|-------------------4444-3333----------------------|

coro
G|--------------------------------------|
D|--------------------------------------|
A|----------66666666-33333333-4444-6666-|
E|-44444444-----------------------------|

G|-------------------------------------------|
D|-------------------------------------------|
A|----------66666666-33333333-4444-666-666---|
E|-44444444----------------------------------|

outro
G|---------------------------------------------------------|
D|---------------------------------------------------------|
A|----------------66666-66-66-66-33333-33-33-33-4~-6~------|
E|-44444-44-44-44-------------------------------------4~---|

esta kancion te la dediko a ti rocio..
tenemos una cita en el kirofano
me sakaran el korason para dartelo
porke tu me lo rabaste <3Fuente: Tus acordes