a b c d e f g h i j k l m n o p q r s t u v w x y z 0-9

Cita En El Quirofano

Panda

Cm
			
CITA EN EL QUIROFANO [acustico MTV]
     

Chords 

afina la guitarra en bemol y subela 1/2 traste cada nota para que suene mejor 
   Ab   E5b   Eb   Cm5  Db5  Db
E|-4-----0----3-----0----0----0--|
B|-4-----0----4-----0----0----2--|
G|-5-----8----3-----5----6----0--|
D|-6-----8----0-----5----6----3--|
A|-6-----6----0-----3----4----4--|
E|-4-----x----x----------x----0--|

alternative Chords [powerchord]
   Ab5  Eb5   Cm5   Db5    C5II
E|-x-----x-----x-----x------x----|
B|-x-----x-----x-----x------x----|
G|-0-----0-----0-----0------5----|
D|-8-----5-----1-----3------5----|
A|-6-----6-----3-----4------3----|
E|-4-----0-----0-----0------0----|

Intro
             p h  p h  p h  p h             p h  p h  p h  p h          p h  p h  p h  p h
|------4-----4-4--4-4--4-4--4-4--------0----0-0--0-0--0-0--0-0------0---1-1--1-1--1-1--1-1--|
|-----4------4-4--4-4--4-4--4-4-------0-----0-0--0-0--0-0--0-0-----0----1-1--1-1--1-1--1-1--|
|----5---5---5-5--5-5--5-5--5-5------8---8--8-8--8-8--8-8--8-8----5--5--1-1--1-1--1-1--1-1--|
|------------6-6--6-6--6-6--6-6-------------8-8--8-8--8-8--8-8----------3-3--3-3--3-3--3-3--|
|------------6-6--6-6--6-6--6-6---6---------6-6--6-6--6-6--6-6--3-------3-3--3-3--3-3--3-3--|
|--4---------4-4--4-4--4-4--4-4-----------------------------------------1-1--1-1--1-1--1-1--|
            
            p h             p
|-------0---0-0-----0----0-----------------------------------------------------------------||
|------0----0-0----0----0---4--------------------------------------------------------------||
|-----6---6-6-6---8----8--8-5--------------------------------------------------------------||x2
|-----------6-6-------------6--------------------------------------------------------------||
|---4-------4-4-6----6------6--------------------------------------------------------------||
|---------------------------4--------------------------------------------------------------||

Ab                       Eb5
 si tan solo pudieras entender
                         Bm5
 mil veces te lo explicare otra vez
          Db5              Eb5             Ab5
 eres tan buena pretendiendo que estas bien
                           Eb5
 evitar palabras de mas excusas inventar
                 Cm5
 poderte tocar no puedo parar
                    Db5       Eb5
 te juro que yo no puedo parar
Ab                           Eb5
 si hola no te hubiera dicho yo
                               Cm
 jamás tendríamos que decir adiós
         Db5             Eb5          Ab
 no me mereces yo soy mucho para tu corazón
                      Eb5
 esta discusión a nada llegara
                             Cm5
 pues no haces ni el mínimo esfuerzo
     Db5            Eb5
 déjame........... déjame opinar

  Ab          Eb               Cm
------4----4------3-------3-------|
-------4--4-4-------4--4----4-----|
----1---1-------3----3------------|
--------------1-------------------|
--------------------------------3-|
--4-------------------------------|
 tenemos una cita en el quirófano
                           Db      Eb
---------3-----------3------------------3-----|
-----4------4--------------------2-----4-4----|
--5-------------5--------5----1------3-----3--|
-----------------------------------1----------|
---------------------------4------------------|
----------------------------------------------|
 vendrá el doctor me aplicara cirugía
  Ab                   Eb                Cm
--------4-----4------------3-----3-------------|
----------4-----4--------4---4-----4-----------|
-----1------1---------3--------3------3--------|
-------------------1---------------------------|
-------------------------------------------3---|
--4--------------------------------------------|
 me sacara el corazón trasplante de corazón
       Db        Eb
---3-------1--------3---3----|
----4--------2-------4---4---|
--5--5---3----3---3---3---3--|
----------------1------------|
-------4---------------------|
-----------------------------|
      ahí te va mi dolor

Ab                      Eb
mentiras dijiste saber por que
                             Cm
es algo que siempre eh querido saber
    Db        Eb            Ab
inventare algún castigo para hacerte sufrir
                 Eb
las cosas no se van a quedar así
                     Cm
permíteme hacerte sufrir por favor
    Db         Eb
pues no existe el amor


  Ab          Eb               Cm
------4----4------3-------3-------|
-------4--4-4-------4--4----4-----|
----1---1-------3----3------------|
--------------1-------------------|
--------------------------------3-|
--4-------------------------------|
 tenemos una cita en el quirófano
                           Db      Eb
---------3-----------3------------------3-----|
-----4------4--------------------2-----4-4----|
--5-------------5--------5----1------3-----3--|
-----------------------------------1----------|
---------------------------4------------------|
----------------------------------------------|
 vendrá el doctor me aplicara cirugía
  Ab                   Eb                Cm
--------4-----4------------3-----3-------------|
----------4-----4--------4---4-----4-----------|
-----1------1---------3--------3------3--------|
-------------------1---------------------------|
------------------------------------------3----|
--4--------------------------------------------|
 me sacara el corazón trasplante de corazón
       Db        Eb
---3-------1--------3---3----|
----4--------2-------4---4---|
--5--5---3----3---3---3---3--|
----------------1------------|
-------4---------------------|
-----------------------------|
      ahí te va mi dolor



solo
E|-----------------------------------------------66--88--9/11-11~[9h11]----|
A|----------------------------------------66--88---------------------------|
D|---------------------------------66--88----------------------------------|
G|--------------------------66--88-----------------------------------------|
B|--------------44--66--88-------------------------------------------------|
E|-------44--66------------------------------------------------------------|

   --[11h13]1313131313/15/16~[15h16h18]18-16-15-16-13h16---16--16--16--16--|
   ------------------------------------------------------16--14--13--11----|
   ------------------------------------------------------------------------|
   ------------------------------------------------------------------------|
   ------------------------------------------------------------------------|
   ------------------------------------------------------------------------|

   ---------------11h13-11h13-11~-||-----------------------------------||
   -------------------------------||-----------------------------------||
   ----13~--13-13-----------------||--15b--13---------15b--13----------||
   -------------------------------||---------15--13----------15--13----||x2
   -------------------------------||-----------------------------------||
   -------------------------------||-----------------------------------||


   --11h13-11h13-11~---16-15-13----------15-13-11---------------------------|
   -----------------------------16-14-15----------14-13---------------------|
   -----------------------------------------------------15-15b-13-----15b---|
   --------------------------------------------------------------15-13------|
   -------------------------------------------------------------------------|
   -------------------------------------------------------------------------|

                                                        
   ---------------15-13---13---15--13----13---15---13----13-15-16-16b-------|
   -----13-11----------16------------16--------------16---------------------|
   -15b--------13-----------------------------------------------------------|
   -------------------------------------------------------------------------|
   -------------------------------------------------------------------------|
   -------------------------------------------------------------------------|	

   Ab               Eb                    Cm
 róbame el dolor quiero que sepas que se siente
        Db         Eb
 para que me pidas perdón

Fuente: Tusacordes