a b c d e f g h i j k l m n o p q r s t u v w x y z 0-9

Cita En El Quirofano

Panda

			
intro: g2
eb|-----------------------------------|
Bb|-----------------------------------|
Gb|-----------------------------------|
Db|99999-99-99-99-99-999999-99-99-99--| 
Ab|77777-77-77-77-77-777777-77-77-77--|
Eb|55555-55-55-55-55-555555-55-55-55--|

intro: g1
eb|-----------------------------------------------------|
Bb|-----------------------------------------------------|
Gb|-----------------------------------------------------|
Db|------------------66666-66-66-66-66-22222-22-22-22-22|
Ab|44444-44-44-44-44-77777-77-77-77-77-44444-44-44-44-44|
Eb|55555-55-55-55-55------------------------------------|

eb|-------------------|
Bb|-------------------|
Gb|-------------------|
Db|44444-7-666-9-66-9-|x2
Ab|55555-5-777-7-77-7-|
Eb|-------------------|

en este pedaso la g2 tok l ismo intro mientra la  g1 tok este de ak

vrso:ambas G

eb|--------------------------------------|
Bb|-------------------------7-7-77-9-999-|
Gb|22222222-----------------7-7-77-9-999-|
Db|222222222222222244444444-x-x-xx-x-xxx-|X2
Ab|000000002222222244444444-5-5-55-7-777-|
Eb|--------0000000022222222--------------|


luedo G1
eb|-----------------------------------------|
Bb|-----------------------------------------|
Gb|-----------------------------------------|
Db|-----------------------------------------|
Ab|00000000----------------5555555577777777-|
Eb|--------0000000022222222-----------------|
PM|-----------------------------------------|

eb|-------------------------------------|
Bb|------------------------7-7-77-9-999-|
Gb|------------------------7-7-77-9-999-|
Db|------------------------x-x-xx-x-xxx-|
Ab|00000000----------------5-5-55-7-777-|
Eb|--------0000000022222222-------------|
PM|------------------------|




coro:
eb|----------------------------------|
Bb|----------------------------------|
Gb|--6---6---6---6---6---6---6---6---|
Db|-7-7-7-7-7-7-7-7-7-7-7-7-7-7-7-7--|X2
Ab|----------------4---4-------------|
Eb|5---5---0---0-----------0---5-----|



 y se toka el intro una vez


luego la guitarra  2 toca en mute todo el verso anterior mientra la G1 toka esto
eb|--------------------------------------------------|
Bb|-------------------------------------7-7-77-9-999-|
Gb|-------------------------------------7-7-77-9-999-|
Db|9--9--9--9--11--11--11--11--7-7-7-7--x-x-xx-x-xxx-|X2
Ab|-12-12-12-12--12--12--12--12-9-9-9-9-5-5-55-7-777-|
Eb|--------------------------------------------------|
PM|------------------------------------|
traten de acomodarse en ese pedazo

coro
eb|----------------------------------|
Bb|----------------------------------|
Gb|--6---6---6---6---6---6---6---6---|
Db|-7-7-7-7-7-7-7-7-7-7-7-7-7-7-7-7--|
Ab|----------------4---4-------------|
Eb|5---5---0---0-----------0---5-----|

 y se toca el intro 1 vez luego la guitarra 1 hace el solo q es
solo:
G2
eb|---------------------------------|
Bb|---------------------------------|
Gb|--------999999996666666677779999-|
Db|77777777999999996666666677779999-|
Ab|77777777777777774444444455557777-|
Eb|55555555-------------------------|
este se toca levantando los dedos por cada resgueo

g1
eb|---------------------------------777999-|
Bb|---------------------------777999-------|
Gb|---------------------777999-------------|
Db|---------------777999-------------------|
Ab|---------777999-------------------------|
Eb|555777999-------------------------------|

eb|9-10-12-10h12-14-16-17-16h17-17b17p16-17-16-|
Bb|--------------------------------------------|
Gb|--------------------------------------------|
Db|--------------------------------------------|
Ab|--------------------------------------------|
Eb|--------------------------------------------|

eb|--17-14-17--17--17--17--17-------------|
Bb|17--------17--15--14-----------17b17bf-|
Gb|----------------------16--14-14--------|
Db|---------------------------------------|
Ab|---------------------------------------|
Eb|---------------------------------------|

en la parte q dice "robame el dolor quiero que sepas...."
se toka

eb|--------------------------------------|
Bb|-------------------------7-7-77-9-999-|
Gb|22222222-----------------7-7-77-9-999-|
Db|222222222222222244444444-x-x-xx-x-xxx-|
Ab|000000002222222244444444-5-5-55-7-777-|
Eb|--------0000000022222222--------------|

bno ps depues d esto veinia el solo II pro ps x el momento no m lo c pro ps prueben este mientra tanto

y para l final las dos g tokan
final:
"enemos una cita en el quirifani...."
eb|---------------------------------|
Bb|---------------------------------|
Gb|--------999999996666666677779999-|
Db|77777777999999996666666677779999-|
Ab|77777777777777774444444455557777-|
Eb|55555555-------------------------|
se toka varas veces y para terminar se toka el intro 1 vez para trminar

Fuente: tusacordes.com