a b c d e f g h i j k l m n o p q r s t u v w x y z 0-9

Cita En El Quirofano

Panda

			
INTRO----->DE ARRIBA A ABAJO Y VICEVERSA RAPIDAMENTE Y LUEGO
           LENTO AL FINAL DE CADA NOTA
           CADA NOTA DURA UN COMPAS 4 SEG.
           LA ULTIMA NOTA DURA SOLO MEDIO COMPAS 2 SEG.
|---------------|
|---------------|
|---------------| ==>SE TOCA DOS COMPACES, Y LUEGO SE ESPERA
|-8-8-8-8-8-----|    UN SEGUNDO Y ENTRA LA BATERIA
|-6-6-6-6-6-----|
|-4-4-4-4-4-----|


|----------------------------------------|
|----------------------------------------|
|---------------5-5-5--5-5-5--7-7-7------|
|-8-8-8--5-5-5--6-6-6--6-6-6--5-5-5------|
|-6-6-6--6-6-6--3-3-3--4-4-4--6-6-6------|
|-4-4-4--4-4-4---------------------------|
    ^      ^      ^      ^      ^
1º NOTA 2º NOTA 3º NOTA 4º NOTA  ULTIMA NOTA

1) ACOMPAÑAMIENTO PRINCIPAL--->CADA NOTA DURA UN COMPAS, LAS ULTIMAS
                               DOS MEDIO COMPAS
                               SE TOCA DE ARRIBA A ABAJO RAPIDAMENTE
|------------------------|
|------------------------|
|------8-8-------6--8----|
|-6-6--8-8--3-3--6--8----|
|-6-6--6-6--3-3--4--6----|
|-4-4-------1-1----------|

1) SI TAN SOLO PUDIERAS ENTENDER
MIL VECES TE LO EXPLICARE OTRA VEZ
ERES TAN BUENA PRETENDIENDO QUE ESTAS BIEN EVITAR
PALABRAS DE MAS EXCUSAS INVENTAR
PODERTE TOCAR
NO PUEDO PARAR TE JURO QUE YO
NO PUEDO PARAR

2)MISMAS NOTAS ANTERIORES PERO SE TOCA CON UN POCO DE PALM MUTE Y
  SOLO CON DOS CUERDAS

2)SI HOLA NO TE UBIERA DICHO YO
JAMAS TENDRIAMOS QUE DECIR ADIOS
NO ME MERECES YO SOY MUCHO PARA
TU CORAZON ESTA DISCUCION A NADA LLEGARA
PUES NO HACES EL MINIMO ESFUERZO DEJAME
DEJAME OPINAR

SE REPITE LAS DOS ULTIMAS NOTAS, UN COMPAS CADA NOTA

|----------------|
|----------------|
|-6-6-6-8-8-8----|
|-6-6-6-8-8-8----|
|-4-4-4-6-6-6----|
|----------------|

3)CORO---->CON DISTORCION SUAVE, ESTE PUNTEO SE REPITE DOS VECES

|-------------------------------------------------------------------|
|-------------------------------------------------------------------|
|-----5-------5-------5-------5-------5-------5-------5-------5-----|
|---6---6---6---6---6---6---6---6---6---6---6---6---6---6---6---6---|
|---------------------------------3-------3-------4-------6---------|
|-4-------4-------4-------4-----------------------------------------|

3)TENEMOS UNA CITA EN EL QUIROFANO
VENDRA EL DOCTOR ME APLICARA CIRUGIA
ME SACARA EL CORAZON
TRANSPLANTE DE CORAZON
AHI TE VA MI DOLOR

4)SE REPITE EL INTRO UNA VEZ

5)SOLO TOCA EL BAJO, PERO EN LA 4º NOTA DEL BAJO LA GUITARRA HACE:
|-----------------------------------|
|-----------------------------------|
|-13-13-13-13-13--12-12-12-12-12----|
|-----------------------------------|
|-11-11-11-11-11--10-10-10-10-10----|
|-----------------------------------|

5)MENTIRAS DIJISTE SABER POR QUE
ES ALGO QUE SIEMPRE E QUERIDO SABER
INVENTARE ALGUN MOTIVO PARA
HACERTE SUFRIR LAS COSAS NO SE VAN A QUEDAR ASI
PERMITEME HACERTE SUFRIR POR FAVOR
PUES NO EXISTE EL AMOR

6) SE REPITE LA PARTE 3) PERO SOLO UNA VEZ LUEGO SE TOCA EL INTRO UNA VEZ

7)SOLO--->LA OTRA GUITARRA ACOMPAÑA CON LAS NOTAS DEL PRINCIPALES,
          PERO TOCANDO LENTAMENTE

|----------------------------------11--11--11-|
|-----------------------9-11-13-14------------|
|------------------8-10-----------------------|
|-----------6-8-10----------------------------|
|-------6-8-----------------------------------|
|-4-6-8---------------------------------------|

|--9-11-13--15--16-16-16-16-16-15-16--16s18-16--15-16-|
|-----------------------------------------------------|
|-----------------------------------------------------|
|-----------------------------------------------------|
|-----------------------------------------------------|
|-----------------------------------------------------|

|----16-15-16-13-16----16----16----16-----------------------|
|-16----------------16----14----13-------16s18-16s18-16-----|
|-------------------------------------13--------------------|
|-----------------------------------------------------------|
|-----------------------------------------------------------|
|-----------------------------------------------------------|


8)PARTE ESPECIAL

|-----------------------------------------------------------|
|-----------------------------------------------------------|
|-6-----6-------8-----8-------------------------------------|
|-6-----6-------8-----8-----------6-------6---------3---3---|
|-4-----4-------6-----6-----------6-------6---------3---3---|
|---------------------------------4-------3---------1---1---|
 ROBAME EL DOLOR       QUIERO QUE SEPAS QUE SE SIENTE

|-----------------------------|
|-----------------------------|
|-----6---6-------------8-----|
|-----6---6-------------8-----|
|-----4---4-------------6-----|
|-----------------------------|
PARA QUE ME PIDAS PERDON

9)CORO CON LAS NOTAS PRINCIPALES TOCANDO LENTO

FINAL----> SE REPITE EL INTRO

Fuente: tusacordes.com