a b c d e f g h i j k l m n o p q r s t u v w x y z 0-9

Cita En El Quirofano

Panda

			
e|--------------------------------------------------|
B|--------------------------------------------------|
G|------------------------9-99x-99x-99x-99x---------|
D|---7-77x-77x-77x-77x---6--66x-66x-66x-66x---------|
A|--4--44x-44x-44x-44x--7---77x-77x-77x-77x---------|
E|-5---55x-55x-55x-55x------------------------------|


e|--------------------------------------------------|
B|--------------------------------------------------|
G|------------------------6-66x-----9----9----------|
D|--22-22x-22x-22x-22x---4--44x---6-6--6-6----------|
A|-4---44x-44x-44x-44x--5---55x--7--7-7--7----------|
E|--------------------------------------------------|


LiRa 2 : RiX

e|-----------------------|
B|-----------------------|     con el ritmo de la guitarra
G|-----------------------|     de ar2r
D|---9--99x-99x-99x-99x--|  x 5
A|--7---77x-77x-77x-77x--|
E|-5----55x-55x-55x-55x--|

OJO ::::durante las estrofas ar2ro hace arpegios sobre
        la nota pa que suene mas xvr y xingon!!


PRIMER CORO :: OJO:

CoRo x2: "tenemos una cita...."

Ar2r :

e|----9-----9-----9-----9------9------9-----9-----9----|
B|--10-10-10-10-10-10-10-10--10-10--10-10-10-10-10-10--|
G|-------------9-----9-----11-----11-----0-----9-------| x 2
D|-----------------------------------------------------|
A|-0-----0---------------------------------------------|
E|-----------------------------------------------------|


Rix : en " Me sakara el korazon.." lo hace komo bajos


e|------------------------------------------|
B|------------------------------------------|
G|------------------------------------------|
D|------------------------------------------|
A|----------7-7^-7-7^-4-4^-4-4^-5-5^-7-7^---|
E|-5-5^-5-5^--------------------------------|

SEGUNDO CORO:::OJO:::

CoRo x2: "tenemos una cita...."

Ar2r :

e|----9-----9-----9-----9------9------9-----9-----9----|
B|--10-10-10-10-10-10-10-10--10-10--10-10-10-10-10-10--|
G|-------------9-----9-----11-----11-----0-----9-------| x 2
D|-----------------------------------------------------|
A|-0-----0---------------------------------------------|
E|-----------------------------------------------------|

Rix : en " Me sakara el korazon.." lo hace komo el intro


e|-----------------------|
B|-----------------------|
G|-----------------------|
D|---9--99x-99x-99x-99x--|  x 5
A|--7---77x-77x-77x-77x--|
E|-5----55x-55x-55x-55x--|


SOLO (ar2r hace el solo y Rix acompaña
        con notas:" A-E--C#5-D-E")


e|--------------------------------------------------|
B|-------------5^5-3/5-3----------------------------|
G|----------6-7---------6/7-6-----------------------|
D|-------6-7-----------------7-7/9-9-7-6------------|
A|----5-7-----------------------------8/9-8-7-6-----|
E|-5-7-----------------------------------------9-7--|

SUMAMENTE RAPIDO AL RITMO DE LA CANCION
e|-------------------------------9-----------12----------|
B|----10---10--10---10---10---10--10-10---10---10-10-----|
G|---9----9--99--9----9----9----9---9--9----9----9--9----|
D|-11---11--------11---11---10----------11-----------11--|
A|-------------------------------------------------------|
E|-------------------------------------------------------|

e|---12-----------12--9---9---9---|
B|10---10-10---10---10-10--10--10-|
G|--9----9--9----9-------9---9----|
D|-----------11-------------------|
A|--------------------------------|
E|--------------------------------|


:::AKI SE TOKAN 2 CUERDAS LA 2DA CUERDA AL AIRE:::!!!

e|-2-3-4-6-8-10-12-14-15-16-17-16-17-16-14----------|
B|-0-0-0-0-0--0--0--0--0--0--0--0--0--0--0----------|
G|--------------------------------------------------|
D|--------------------------------------------------|
A|--------------------------------------------------|
E|--------------------------------------------------|
 ESO ES TOO EL PUNTEO FACILITO...SNIF!!! 


PARTE ESPECIAL DE LA CANCION EN "transplante de corazon.
con el coro final"

LiRa 1 : Ar2r

e|--------------------------------------------------|
B|--------------------------------------------------|
G|------------------------9-99x-99x-99x-99x---------|
D|---7-77x-77x-77x-77x---6--66x-66x-66x-66x---------|
A|--4--44x-44x-44x-44x--7---77x-77x-77x-77x---------|
E|-5---55x-55x-55x-55x------------------------------|


e|-----------------------------------------------|
B|-----------------------------------------------|
G|----------------------7-7-9999-9---------------|
D|--22-22x-22x-22x-22x--7-7-9999-9--7------------|
A|-4---44x-44x-44x-44x--5-5-7777-7--7------------|
E|----------------------------------5------------|


Fuente: tusacordes.com