a b c d e f g h i j k l m n o p q r s t u v w x y z 0-9

Cita En El Quirofano

Panda

			
aki les pongoun poco de solo
esuqe
ps no se mucho de guitarras
y lo poco que se
lo aprendi de panda
xD
bno
pues ojala uqe les sirva
ai me dejan comentarios 

|----------------------------------11--11--11-|
|-----------------------9-11-13-14------------|
|------------------8-10-----------------------|
|-----------6-8-10----------------------------|
|-------6-8-----------------------------------|
|-4-6-8---------------------------------------|

|--9-11-13--15--16-16-16-16-16-15-16--16s18-16--15-16-|
|-----------------------------------------------------|
|-----------------------------------------------------|
|-----------------------------------------------------|
|-----------------------------------------------------|
|-----------------------------------------------------|

|----16-15-16-13-16----16----16----16-----------------------|
|-16----------------16----14----13-------16s18-16s18-16-----|
|-------------------------------------13--------------------|
|-----------------------------------------------------------|
|-----------------------------------------------------------|
|-----------------------------------------------------------|

Fuente: tusacordes.com