a b c d e f g h i j k l m n o p q r s t u v w x y z 0-9

Cita En El Quirofano

Panda

			
CITA EN EL QUIRÓFANO

Intro 

Pepe
E|--------------------------|
B|--------------------------|
G|----9-9-9-9----------------| 
D|----7-7-7-7----------------|
A|----6-6-6-6----------------|
E|----5-5-5-5----------------|

chequeen el ritmo y numero d veces q toca

Arturo
E|---------------------------------------------------|
B|---------------------------------------------------|
G|---------------------------------------------------| 
D|-------------666-6-6--222-2-2---444------/6-6------------------------|
A|---444-4-4---777-7-7--444-4-4---555--/7--/7-7------------------------|
E|---555-5-5------------xxx-x-x-------------------------------------|

chequeen el ritmo y numero d veces q toca

si no me entienden mucho consulten en el dvd del disco P.T.C.D.

VERSO

Si tan solo pudieras......

E|--------------------------|
B|--------------------------|
G|---------5-5-5------------| 
D|--8-8-8--5-5-5--5-5-5-----| x3
A|--8-8-8--3-3-3--5-5-5-----|
E|--6-6-6---------3-3-3-----|
    A#m     Cm     Gm   
cheqeen los cambios


Te juro q yo no....
E|-------0--------------------|
B|-------0--------------------|
G|-------1--------------------| 
D|--2----2--------------------|
A|--3----2--------------------|
E|--2----0--------------------|
    D    E

Si hola no te.......  
este pedazo va algo rapido escuchen la rola y cheqeen los cambios

E|--------------------------------------|
B|--------------------------------------|
G|-------5555---------------------------| 
D|-8888--5555--5555---------------------| x3
A|-8888--3333--5555---------------------|
E|-6666--------3333---------------------|
    A#m  Cm     Gm

En lo ultimo ya no toquen el Gm si no q ya solo tocan hasta Cm


Dejame opinar....
E|-------0--------------------|
B|-------0--------------------|
G|-------1--------------------| 
D|--2----2----2----7-7-7----------|
A|--3----2----3----7-7-7----------|
E|--2----0----2----5-5-5----------|
    D    E    D     Am



Coro
Tenemos una cita.....
      
E|----------------------------|
B|-------2----------------------|
G|---------2--------------------| 
D|-----2------------------------| x15
A|---0-------------------------|
E|----------------------------|
    

Luego tocan el intro otra vez


Pepe
E|----------------------------|
B|----------------------------|
G|----9-9-9-9-9---------------| 
D|----7-7-7-7-7---------------|
A|----6-6-6-6-6---------------|
E|----5-5-5-5-5---------------|

chequeen el ritmo y numero d veces q toca

Arturo
E|---------------------------------------------------|
B|---------------------------------------------------|
G|---------------------------------------------------|
D|-------------666-6-6--222-2-2---444------/6-6------------------------|
A|---444-4-4---777-7-7--444-4-4---555--/7--/7-7------------------------|
E|---555-5-5------------xxx-x-x-------------------------------------|


Mentiras dijiste......
E|----------------------------------------------------------------------|
A|----------------------------------------------------------------------|
D|-6-8-6-8--10-8-10-8--6-8-6-8--10-8-10-8-------------------------------|
g|----------------------------------------8--8-----------8--8-----------|
b|-----------------------------------------8?-8--9-8-9-8--8--8--9-8-9-8-|
e|----------------------------------------------------------------------|

E|----------------------------------------------------------------------|
A|------------------------------------------11-11-111111--10-10-101010--|
D|-6-8-6-8--10-8-10-8--6-8-6-8--10-8-10-8-------------------------------|
g|------------------------------------------13-13-131313--12-12-121212--|
b|----------------------------------------------------------------------|
e|----------------------------------------------------------------------|

E|----------------------------------------------------------------------|
A|----------------------------------------------------------------------|
D|-6-8-6-8--10-8-10-8--6-8-6-8--10-8-10-8-------------------------------|
g|----------------------------------------8--8-----------8--8-----------|
b|-----------------------------------------8?-8--9-8-9-8--8--8--9-8-9-8-|
e|----------------------------------------------------------------------|

E |----------------------------------------|
A |----------------------------------------|
D |-6-8-6-8--10-8-10-8--6-8-6-8--10-8-10-8-|
g |----------------------------------------|
b |----------------------------------------|
e |----------------------------------------|

E |--8--8--8?8-/-11-11-11-11-/-8--8--8--8--8--8--8?8-/4--|
A |-11-11-11-11/-13-13-13-13-/11-11-11-11-11-11-11-11/6--|
D |-11-11-11-11/-13-13-13-13-/11-11-11-11-11-11-11-11/6--|
g |------------------------------------------------------|
b |------------------------------------------------------|
e |------------------------------------------------------|


Pues no existe el.......
E|-------0--------------------|
B|-------0--------------------|
G|-------1--------------------| 
D|--2----2----2----7-7-7----------|
A|--3----2----3----7-7-7----------|
E|--2----0----2----5-5-5----------|
    D    E    D     Am


Coro
Tenemos una cita.....
      
E|----------------------------|
B|-------2----------------------|
G|---------2--------------------| 
D|-----2------------------------| 
A|---0-------------------------|
E|----------------------------|

En este coro al minuto 2:21 Tocan lo del intro 1 vez

Me sacara el....

Pepe
E|--------------------------|
B|--------------------------|
G|----9-9-9-----------------| 
D|----7-7-7-----------------|
A|----6-6-6-----------------|
E|----5-5-5-----------------|

Arturo
E|---------------------------------------------------|
B|---------------------------------------------------|
G|---------------------------------------------------|
D|-------------666-6-6--222-2-2---444------/6-6------------------------|
A|---444-4-4---777-7-7--444-4-4---555--/7--/7-7------------------------|
E|---555-5-5------------xxx-x-x-------------------------------------|



Solo

Pepe esto va con palm muted
E|--------------------------|
B|--------------------------|
G|--------9-9-9------------------| 
D|-7-7-7--9-9-9--6-6-6--7-7-7--9-9-9---------|
A|-7-7-7--7-7-7--6-6-6--7-7-7--9-9-9---------|
E|-5-5-5---------4-4-4--5-5-5--7-7-7---------|



Arturo
|----------------------------------6---8----------|
|-----------------------6-8-----------------------|
|-----------------6-8-----------------------------|
|------------6-8----------------------------------|
|-------6-8---------------------------------------|
|-4-6-8-------------------------------------------|

|--10-11--9--8--9?11/13x5-15x4-16x4?15-16-16/18-------|
|-----------------------------------------------------|
|-----------------------------------------------------|
|-----------------------------------------------------|
|-----------------------------------------------------|
|-----------------------------------------------------|

|----16-15-16-13-16----16----16----16-----------------------|
|-16----------------16----14----13-------16/18-16/18-16-----|
|-------------------------------------13--------------------|
|-----------------------------------------------------------|
|-----------------------------------------------------------|
|-----------------------------------------------------------|




e|-----------------------------------------
B|----------------------------16/16/16-----
G|--15/-13----|ESTO LO ASE |---------------
D|---------14--|5 VESE PERO |--------------
A|-----------13|SUPER RAPIDO|--------------
E|-----------------------------------------

e|-------------------------------------------------------------------------
B|---16-17-14-16-14----14--------------------------------------------------
G|------------------16---16-14-16-14---14----------------------------------
D|----------------------------------16----16-14-16-14--14------------------
A|---------------------------------------------------16--16-14-16-14-------
E|-------------------------------------------------------------------16-14-

e|----------------------------------16-14-13---------16-14-13----------18/-
B|------------------------16/16-14---------16-14-13---------16-14-13-------
G|-------------14-16/16----------------------------------------------------
D|--------14-16---------15-------------------------------------------------
A|---14-16-----------------------------------------------------------------
E|-16----------------------------------------------------------------------
PARTE ESPECIAL



Y al minuto 2:54 van las mismas notas q toca Pepe pero con otro ritmo escuchen la cancion y ahi lo cheqean

E|--------------------------|
B|--------------------------|
G|--------9-9-9------------------| 
D|-7-7-7--9-9-9--6-6-6--7-7-7--9-9-9---------|
A|-7-7-7--7-7-7--6-6-6--7-7-7--9-9-9---------|
E|-5-5-5---------4-4-4--5-5-5--7-7-7---------|



Luego al minuto 3:31 tocan el intro otra vez


Y las notas finales son

E|--------------------------|
B|--------------------------|
G|--------------------------| 
D|----7--9--7------------------|
A|----7--9--7------------------|
E|----5--7--5------------------|
Solo dejen sonar


Wueno ojala les guste y q me entiendan, reclamos, sugerencias, felicitaciones fans d Panda y guitarristas q me quieran agregar les dejo mi correo para q nos contactemos va tankian_28@hotmail.com

¡¡Q viva PANDA!!

Fuente: tusacordes.com