a b c d e f g h i j k l m n o p q r s t u v w x y z 0-9

Cita En El Quirófano

Panda

C#
			
Bueno, al fin logré sacar esta canción, traté de no hacerla tan difícil, es muy fácil de entenderle, incluso el solo.

Lira 1
e|--------------------------------------------------|
B|--------------------------------------------------|
G|--------------------------------------------------|
D|----888888-88-88-88-88~-888888-88-88-88-----------|
A|----666666-66-66-66-66~-666666-66-66-66-----------|
E|----444444-44-44-44-44~-444444-44-44-44-----------|
      ****** ** ** **     ****** ** ** **

Intro chequen el ritmo y numero de veces que toca

Lira 1queda en el mismo acorde dandole los mismos rasgueos que la lira 2
e|--------------------------------------------------------------|
B|--------------------------------------------------------------|
G|--------------------------------------------------------------|
D|--888888-88-88-88-88~-888888-88-88-88-88~-888888-88-88-88-88~-|
A|--666666-66-66-66-66~-666666-66-66-66-66~-666666-66-66-66-66~-|
E|--444444-44-44-44-44~-444444-44-44-44-44~-444444-44-44-44-44~-|
    ****** ** ** **     ****** ** ** **     ****** ** ** **
e|--------------------------------|
B|--------------------------------|
G|--------------------------------|
D|--888888-888--888-8~-888-8~-----| x2
A|--666666-666--666-6~-666-6~-----|
E|--444444-444--444-4~-444-4~-----|
    ******      ***    ***


Lira 2
e|--------------------------------------------------------------|
B|--------------------------------------------------------------|
G|--------------------------------------------------------------|
D|----------------------555555-55-55-55-55~-111111-11-11-11-11~-|
A|--333333-33-33-33-33~-666666-66-66-66-66~-333333-33-33-33-33~-|
E|--444444-44-44-44-44~---------------------xxxxxx-xx-xx-xx-xx--|
    ****** ** ** **     ****** ** ** **     ****** ** ** **

e|-------------------------------------|
B|-------------------------------------|
G|-------------------------------------|
D|--333333-333------/555-5~-555-5~-----| x2
A|--444444-444--/6--/666-6~-666-6~-----|
E|-------------------------------------|
    ****** ***       ***    ***
Lira 1 lleva los acordes que están arriba de la letra
G#m                        D#                                F
 Si tan solo pudieras entender mil veces te lo explicare otra vez
          C#           D#
eres tan buena pretendiendo que estas
G#m                           D#                               F
bien evitar palabras de mas excusas inventar poderte tocar no puedo
                         C#      D#
parar te juro que yo no puedo parar


Lira 2 checa los tiempos y los cambios
    G#m      D#       F        C#   D#
e|-----------------------------------------|
B|-----------------------------------------|
G|-----------88888888----------6666-8888---|
D|--66666666-88888888-33333333-6666-8888---| x2
A|--66666666-66666666-33333333-4444-6666---|
E|--44444444----------11111111-------------|

Verso 2

Lira 1 aquí ya no se toca la lira
G#m                          D#                               F
 Si hola no te hubiera dicho yo jamas tendriamos que decir adios
        C#           D#
no me mereces yo soy mucho para
G#m                         D#                                     F
tu corazon esta discusion a nada llegara pues ni hacs el minimo esfuerzo
        C#         D#    C#   G#m
dejame, dejame opinar


Lira 2 es palmuteado y son rapidos los rasgueos
    G#m      D#       F        C#   D#
e|-----------------------------------------|
B|-----------------------------------------|
G|-----------------------------------------|
D|-----------88888888----------6666-8888---|
A|--66666666-66666666-33333333-4444-6666---|
E|--44444444----------11111111-------------|
    ******** ******** ******** **** ****

    G#m      D#       F        C#   D#   C#      G#m
e|------------------------------------------------------|
B|------------------------------------------------------|
G|-----------------------------6666-8888-6666666--------|
D|-----------88888888----------6666-8888-6666666-666----|
A|--66666666-66666666-33333333-4444-6666-4444444-666----|
E|--44444444----------11111111-------------------444----|
    ******** ******** ********




Coro
Tenemos una cita en el quirófano
vendra el doctor me aplicara cirugia
e|-------------------------------------|
B|---1----1----1----1----1----1----1---|
G|--1-1--1-1--1-1--1-1--1-1--1-1--1-1--|
D|-------------------------------1-----|
A|----------------3----3----4----------|
E|-0----0----0-------------------------|

Me sacara el corazon transplante de corazon
ahí te va mi dolor
e|------------------------------------------|
B|---1----1----1----1----1----1----1----1---|
G|--1-1--1-1--1-1--1-1--1-1--1-1--1-1--1-1--|
D|------------------------------------1-----|
A|---------------------3----3----4----------|
E|-0----0----0----0-------------------------|


Después se vuelve a tocar el intro
Lira 1qda en el mismo acorde dandole los mismos rasgueos q la lira 2

e|---------------------------------------------------------------|
B|---------------------------------------------------------------|
G|---------------------------------------------------------------|
D|--888888-88-88-88-88~-888888-88-88-88-88~-888888-88-88-88-88~--|
A|--666666-66-66-66-66~-666666-66-66-66-66~-666666-66-66-66-66~--|
E|--444444-44-44-44-44~-444444-44-44-44-44~-444444-44-44-44-44~--|
    ****** ** ** **     ****** ** ** **     ****** ** ** **
e|--------------------------------|
B|--------------------------------|
G|--------------------------------|
D|--888888-888--888-8~-888-8~-----| x1
A|--666666-666--666-6~-666-6~-----|
E|--444444-444--444-4~-444-4~-----|
    ******      ***    ***


Lira 2
e|---------------------------------------------------------------|
B|---------------------------------------------------------------|
G|---------------------------------------------------------------|
D|----------------------555555-55-55-55-55~-111111-11-11-11-11~--|
A|--333333-33-33-33-33~-666666-66-66-66-66~-333333-33-33-33-33~--|
E|--444444-44-44-44-44~---------------------xxxxxx-xx-xx-xx-xx---|
    ****** ** ** **     ****** ** ** **     ****** ** ** **

e|-------------------------------------|
B|-------------------------------------|
G|-------------------------------------|
D|--333333-333------/555-5~-555-5~-----| x1
A|--444444-444--/6--/666-6~-666-6~-----|
E|-------------------------------------|
    ****** ***       ***    ***
Verso 3
G#m                         D#                                F
 Mentiras dijiste saber porque es algo que siempre eh querido saber
       C#          D#
Inventare algun castigo para
  G#m                                 D#                          F
Hacerte sufrir las cosas no se van a qdar así permiteme hacrte sufrir
            C#               D#
por favor pues no existe el amor

Lira 2
  G#m                                     D#
e|----------------------------------------------------------------------|
A|-----------------------------------------8?-8--9-8-9-8--8--8--9-8-9-8-|
D|----------------------------------------8--8-----------8--8-----------|
g|-6-8-6-8--10-8-10-8--6-8-6-8--10-8-10-8-------------------------------|
b|----------------------------------------------------------------------|
e|----------------------------------------------------------------------|

   F                                        C#        D#
e|----------------------------------------------------------------------|
A|------------------------------------------6-6-666---8-8-888-----------|
D|--------------------------------------8---6-6-666---8-8-888-----------|
g|-6-8-6-8--10-8-10-8--6-8-6-8--10-8-10-8---6-6-666---8-8-888-----------|
b|----------------------------------------------------------------------|
e|----------------------------------------------------------------------|

  G#m                                     D#
e|----------------------------------------------------------------------|
A|-----------------------------------------8?-8--9-8-9-8--8--8--9-8-9-8-|
D|----------------------------------------8--8-----------8--8-----------|
g|-6-8-6-8--10-8-10-8--6-8-6-8--10-8-10-8-------------------------------|
b|----------------------------------------------------------------------|
e|----------------------------------------------------------------------|

   F                                        C#   D#   C#      G#m
e|----------------------------------------|--------------------------|
A|----------------------------------------|--------------------------|
D|-6-8-6-8--10-8-10-8--6-8-6-8--10-8-10-8-|-6666-8888-6666666--------|
g|----------------------------------------|-6666-8888-6666666-666----|
b|----------------------------------------|-4444-6666-4444444-666----|
e|----------------------------------------|-------------------444----|

Coro
Tenemos una cita en el quirófano
vendra el doctor me aplicara cirugia
e|-------------------------------------|
B|---1----1----1----1----1----1----1---|
G|--1-1--1-1--1-1--1-1--1-1--1-1--1-1--|
D|-------------------------------1-----|
A|----------------3----3----4----------|
E|-0----0----0-------------------------|

Luego va seguido del intro que se toca una vez
Me sacara el corazon transplante de corazon
ahí te va mi dolor

Lira 1keda en el mismo acorde dandole los mismos rasgueos q la lira 2

e|-----------------------------------------------------------------|
B|-----------------------------------------------------------------|
G|-----------------------------------------------------------------|
D|--888888-88-88-88-88~-888888-88-88-88-88~-888888-88-88-88-88~----|
A|--666666-66-66-66-66~-666666-66-66-66-66~-666666-66-66-66-66~----|
E|--444444-44-44-44-44~-444444-44-44-44-44~-444444-44-44-44-44~----|
    ****** ** ** **     ****** ** ** **     ****** ** ** **
e|--------------------------------|
B|--------------------------------|
G|--------------------------------|
D|--888888-888--888-8~-888-8~-----| x1
A|--666666-666--666-6~-666-6~-----|
E|--444444-444--444-4~-444-4~-----|
    ******      ***    ***


Lira 2
e|-------------------------------------------------------------------|
B|-------------------------------------------------------------------|
G|-------------------------------------------------------------------|
D|----------------------555555-55-55-55-55~-111111-11-11-11-11~------|
A|--333333-33-33-33-33~-666666-66-66-66-66~-333333-33-33-33-33~------|
E|--444444-44-44-44-44~---------------------xxxxxx-xx-xx-xx-xx-------|
    ****** ** ** **     ****** ** ** **     ****** ** ** **

e|-------------------------------------|
B|-------------------------------------|
G|-------------------------------------|
D|--333333-333------/555-5~-555-5~-----| x1
A|--444444-444--/6--/666-6~-666-6~-----|
E|-------------------------------------|
    ****** ***       ***    ***



Solo

Lira 1
  G#m         D#         G          G#m    A#m
e|---------------------------------------------------|
B|---------------------------------------------------|
G|------------8-8-8-8-8------------------------------|
D|-6-6-6-6-6--8-8-8-8-8--5-5-5-5-5--6-6-6--8-8-8-----|x2
A|-6-6-6-6-6--6-6-6-6-6--5-5-5-5-5--6-6-6--8-8-8-----|
E|-4-4-4-4-4-------------3-3-3-3-3--4-4-4--6-6-6-----|


Lira 2
puse los acordes q lleva la lira 1 arriba del hexagrama pa q no
se pierdan
   G#m                   D#                      G
e|-----------------------------------666888-9/11~~11~~11~~~-|
B|-----------------------------666888-----------------------|
G|-----------------------666888-----------------------------|
D|-----------------666888-----------------------------------|
A|-----------666888-----------------------------------------|
E|-444666888------------------------------------------------|

    G#m         A#m    G#m                D#
e|--10/11-13x6-15x6--16~~~-16~~-16~~~~?15-16-16v16~~-16~~~~-|
B|--------------------------------------------------------------|
G|--------------------------------------------------------------|
D|--------------------------------------------------------------|
A|--------------------------------------------------------------|
E|--------------------------------------------------------------|

   G                                          G#m        A#m
e|-16/15-15-16--13--16--16--16-13--------------------------------|
B|------------13--13--16---------13-16----------------16v-16~~~~-|
G|------------------------15-----------13~~~--9/16-16v-----------|
D|---------------------------------------------------------------|
A|---------------------------------------------------------------|
E|---------------------------------------------------------------|

Outro

G#m         D#              G            G#m
Robame el dolor,quiero que sepas que se siente
         A#m          G#mdejas sonar
para que me pidas perdon
  G#m         D#         G          G#m    A#m    G#mdejas sonar
e|------------------------------------------------------|
B|------------------------------------------------------|
G|------------8-8-8-8-8---------------------------------|
D|-6-6-6-6-6--8-8-8-8-8--5-5-5-5-5--6-6-6--8-8-8--6~~~--|x1
A|-6-6-6-6-6--6-6-6-6-6--5-5-5-5-5--6-6-6--8-8-8--6~~~--|
E|-4-4-4-4-4-------------3-3-3-3-3--4-4-4--6-6-6--4~~~--|

Lira 2 continua con el solo

  demasiado rapido    seguido del pull on del G15 y los vibratos de B16
    G#m                      D#
e|-----------------|      e|------------------|
B|-----------------|      B|-----16~16~~16~~~-|
G|--15v-15/13------|      G|-15v--------------|
D|-----------15-13-|x4    D|------------------|
A|-----------------|      A|------------------|
E|-----------------|      E|------------------|

  G                                                              G#m
e|16-15-13-15-16-15--13--------------------------------------------------|
B|-----------------16--16-14-13-14-16-14--13-------------------------16~~|
G|--------------------------------------15--15v--13--------------16v13v--|
D|---------------------------------------------13--15-14-13--------------|
A|--------------------------------------------------------15-14-13-------|
E|-----------------------------------------------------------------------|

   A#m
e|-8/11-14/13-15|-11-13-15-13-|
B|--------------|-------------|    esta divido en dos riff,
G|--------------|-------------|x5  el 1ero se toca una vez
D|--------------|-------------|    seguido del 2do q se toca 5 veces,
A|--------------|-------------|    ambos riff se tocan demasiado rapido
E|--------------|-------------|

    G#mdejas sonar
e|--16v--|
B|-------| y termina con e16 en pull on
G|-------| le puedes aumentar vibrato para que se
D|-------| escuche mas loco.
A|-------|
E|-------|



Coro final

Lira 1los acordes de la letra
G#m          D#                 C
 Tenemos una cita en el quirófano
                          C#      D#
vendra el doctor me aplicara cirugía
G#m                D#
 me sacara el corazon, transplante
    C            C#         D#este acorde se toca como lo marca abajo
de corazon ahí te va mi dolor
                           e|-666-6~-666-6~--|
                           B|-888-8~-888-8~--|
                           G|-888-8~-888-8~--|
                           D|-888-8~-888-8~--|
                           A|-666-6~-666-6~--|
                           E|-666-6~-666-6~--|
                              ***    ***
Lira 2
    G#m      D#       C        C#   D#
E|------------------------------------------|
B|------------------------------------------|
G|-----------88888888-55555555-6666-8888----|
D|--66666666-88888888-55555555-6666-8888----|
A|--66666666-66666666-33333333-4444-6666----|
E|--44444444--------------------------------|

    G#m      D#       C        C#  [D#palm mute]
E|-------------------------------------------------|
B|-------------------------------------------------|
G|-----------88888888-55555555-6666-888-8~-888-8~--|
D|--66666666-88888888-55555555-6666-888-8~-888-8~--|
A|--66666666-66666666-33333333-4444-666-6~-666-6~--|
E|--44444444---------------------------------------|
                                    ***    ***

Riff finalintro
Seguido va de nuez el intro con excepxion de que los 3 ultimos
acordesC#,D#,C#se dejan sonar
[Nota: cuando termina la rola se oye un efecto, este detalle lo logras
cuando después de tokar el ultimo acordeC# bajas y subes el volumen
de la lira,no es la gran mamada]


Lira 1se queda en el mismo acorde dandole los mismos rasgueos que
la lira 2 en excepcion de los 3 ultimos acordes;también puse los acordes
de la letra pa que no se pierdan

   G#m                 D#                  C                    C# D# C#
E|--------------------------------------------------------------4~-6~-4~-|
B|--------------------------------------------------------------6~-8~-6~-|
G|--------------------------------------------------------------6~-8~-6~-|
D|-888888-88-88-88-88~-888888-88-88-88-88~-888888-88-88-88-88~--6~-8~-6~-|
A|-666666-66-66-66-66~-666666-66-66-66-66~-666666-66-66-66-66~--4~-6~-4~-|
E|-444444-44-44-44-44~-444444-44-44-44-44~-444444-44-44-44-44~--4~-6~-4~-|
   ****** ** ** **     ****** ** ** **     ****** ** ** **
                                  Tranplante de?

G#m                D#                   C              C#       D#    C#
                        Transplante de corazon, ahí te va mi dolor-ooooor

Lira 2
   G#m                 D#                  C                    C# D# C#
E|-----------------------------------------------------------------------|
B|-----------------------------------------------------------------------|
G|--------------------------------------------------------------6~-8~-6~-|
D|---------------------555555-55-55-55-55~-111111-11-11-11-11~--6~-8~-6~-|
A|-333333-33-33-33-33~-666666-66-66-66-66~-333333-33-33-33-33~--4~-6~-4~-|
E|-444444-44-44-44-44~---------------------xxxxxx-xx-xx-xx-xx------------|
   ****** ** ** **     ****** ** ** **     ****** ** ** **

o puedes meterle este otro riff final alterno que se escucha mejor

Lira 2riff final alterno
    G#m                 D#                  C                    C# D# C#
E|-----------------------------------------------------------------------|
B|-----------------------------------------------------------------------|
G|---------------------888888-88-88-88-88~-555555-55-55-55-55~--6~-8~-6~-|
D|-666666-66-66-66-66~-888888-88-88-88-88~-555555-55-55-55-55~--6~-8~-6~-|
A|-666666-66-66-66-66~-666666-66-66-66-66~-333333-33-33-33-33~--4~-6~-4~-|
E|-444444-44-44-44-44~---------------------------------------------------|
   ****** ** ** **     ****** ** ** **     ****** ** ** **

Fuente: Tusacordes