a b c d e f g h i j k l m n o p q r s t u v w x y z 0-9

Buen Día

Panda

			
hellosoy yo felipe losers i back, kon otra rola de panda
pasense la de piket porfa
intro:
e|----------------------------------------------------------|
B|----------------------------------------------------------|
G|444-------------------------------------------------------|
D|444---444------------666----------------------------------|
A|222---444------------666----------------------------------|
E|------222------------444----------------------------------|
woooooooooooo...

verso: !!!kon akordes!!!
C              G                     A
te conozco desde hace muchas horas
C              G                     A
se perfectamente como eres
C              G                     A
juntos paseabaos tomados de la mano
C              G                     A
persiguiendo al carrito de nieves


e|----------------------------------------------------------|
B|----------------------------------------------------------|
G|444-------------------------------------------------------|
D|444---444------------666----------------------------------|
A|222---222------------666----------------------------------|
E|------222------------444----------------------------------|

C           G                       A
tu eres todo y yo no soy nada
C           G                       A
por ti yo me bañaba diario
C           G                       A
si supieras cual es mi esperanza
G             A
solo pensar en ti

coro:
e|-----------------------------------------------------------|
B|-----------------------------------------------------------|
G|444--------------------------------------------------------|
D|444-444-666------------------------------------------------|
A|222-444-666------------------------------------------------|
E|----222-444------------------------------------------------|
y esperaba  verte.....

"solo":
e|------------------------------------------------------------|
B|------------------------------------------------------------|
G|------------------------------------------------------------|
D|------------------------------------------------------------|
A|4-4-3-4-3--1-1-1-1--4-3-4-4---------------------------------|
E|-------------4----------------------------------------------|
luego:
e|------------------------------------------------------------|
B|------------------------------------------------------------|
G|6-6-6-5-6-5--------------5x6x5------------------------------|
D|---------------6-8x8x8x8------------------------------------|
A|------------------------------------------------------------|
E|------------------------------------------------------------|
tocar varias veces y dejar sonar

intermedio:
e|9<---------6<--8<---------------------------------------|
B|9<---9<--7<--9<-----------------------------------------|
G|10<-8<--6<--8<------------------------------------------|
D|11<-7<--------------------------------------------------|
A|------6<------------------------------------------------|
E|--------------------------------------------------------|
me dejaste, pero yo te kiero igual
coro:
e|-----------------------------------------------------------|
B|-----------------------------------------------------------|
G|444--------------------------------------------------------|
D|444-444-666------------------------------------------------|
A|222-444-666------------------------------------------------|
E|----222-444------------------------------------------------|
y esperaba  verte.....
me despido bye¿sami?"diaz ordaz rockea"
saludosFuente: Tus acordes