a b c d e f g h i j k l m n o p q r s t u v w x y z 0-9

Atractivo Encontramos En Lo Mas Repugnante

Panda

			
la guitarra esta en bemol
intro

----------------------------
----------------------------
--12--11--12----------7--7h9
-9---9---9---12--9--9--9----   x6
----------------------------
----------------------------

riff 1

-------10--10h12--10hm12hm14p12p10----10hm12--10hm12p10---
---12------------------------------12-------------------12
----------------------------------------------------------
-9--------------------------------------------------------
----------------------------------------------------------
----------------------------------------------------------

MIm                   SOL
YO TE ENCUENTRO TAN BELLA Y TAN IRREAL
MIm               LA
QUE PREPARO MI SER PARA UN RITUAL
MIm            SOL
DE ORO PURO YO TE VOY A BAÑAR
MIm             LA
COMO ESTATUA TE VOY A IDOLATRAR

riff 2

----------------------------------------------------------
----------------------------------------------------------
----------------------------------------------------------
-4-4-4-4-4-4-4-4-4----------------------------------------    x2
-2-2-2-2-2-2-2-2-2--5-5-5-5-5-5-5-5--2-2-el del 2y0 embes de    
--------------------3-3-3-3-3-3-3-3--0-0-durar 8 dura 16

SIm   SOL             MIm      LA
TU MIRADA PROFUNDA Y FRIA ESQUIVE
      SIm       SOL
PARA EVITAR EN PIEDRA
        MIm   LA
TRANSFORMARME Eh!


riff 3

----------------------------------------------
-------10--------------10---------------------
----------11--------------11-----------6------
----12-------12-----12--------12-----4---7--5-
-10-------------------------------------------
-----------------12----------------2----------

------------------
----------------5-
-------7----------
----5--------7----
------------------
-3--------5-------

coro

SOL         RE
EL POETA SE VA...¡¡¡
            SIm
EL POETA SE VA...¡¡¡
     FA#m     MIm FA#m
EN MEDIO DE ABUCHEOS
SOL           RE
CALVISBAJO SE VA
                 FA#m  SOL
NO TENGO A NADIE MAS...¡¡¡

luego es el intro
terminandolo empieza con el riff 2

MIm          SOL
EL TIEMPO SE COME NUESTRAS VIDAS
MIm            LA
Y A DAÑADO UN POCO MAS LA HERIDA
MIm             SOL
ME ENTERADO QUE TIENE OTRA MISION
MIm             LA
EXTINGUIR LO EXCELSO DE NUESTRO AMOR.

riff 1

SIm      SOL       MIm      LA
QUIERO ARROJAR COMO CARTA DE AMOR
           SIm      SOL
AL FUEGO A ESTE ENJENDRO
       MIm        LA
Y QUE SIENTA EL ARDOR.

riff 3

coro

SOL         RE
EL POETA SE VA...¡¡¡
            SIm
EL POETA SE VA...¡¡¡
     FA#m     MIm FA#m
EN MEDIO DE ABUCHEOS
SOL           RE
CALVISBAJO SE VA
                 FA#m
NO TENGO A NADIE MAS...¡¡¡


SOL         RE
EL POETA SE VA...¡¡¡
            SIm
EL POETA SE VA...¡¡¡
     FA#m     MIm FA#m
EN MEDIO DE ABUCHEOS
SOL           RE
CALVISBAJO SE VA
                 FA#m  SOL-SIm
NO TENGO A NADIE MAS...¡¡¡

distorcion solo 1

----------------------------------------------
----------------------------------------------
----------------------------------------------
----------------------------------------------   x4
---5--7--9---5--7--9---5--7--9-----5----5hm7p5
-7---------3---------0----------5----5--------

solo 2

---------------------------------
---------------------------------
---------------------------------
-9--12hm14--12-14-12-14hm15p14p12   x2
---------------------------------
---------------------------------

coro

SOL         RE
EL POETA SE VA...¡¡¡
            SIm
EL POETA SE VA...¡¡¡
     FA#m     MIm FA#m
EN MEDIO DE ABUCHEOS
SOL           RE
CALVISBAJO SE VA
                 FA#m
NO TENGO A NADIE MAS...¡¡¡


SOL         RE
EL POETA SE VA...¡¡¡
            SIm
EL POETA SE VA...¡¡¡
     FA#m     MIm FA#m
EN MEDIO DE ABUCHEOS
SOL           RE
CALVISBAJO SE VA
                 FA#m  SOL-SIm
NO TENGO A NADIE MAS...¡¡¡

Fuente: tusacordes.com