a b c d e f g h i j k l m n o p q r s t u v w x y z 0-9

Atractivo Encontramos En Lo Mas Repugnante

Panda

			
ATRACTIVO ENCONTRAMOS EN LO MAS REPUGNANTE
 
INTRO GRT 1
Eb----------------------------------|  |
Bb----------------------------------|  |
Gb---12---11---12-------------------|  |
Db-9----9----9----12-9-9-12-9-12-14-|x4|
Ab----------------------------------|  |
Eb----------------------------------|  |




    no me se muy bien cuantos rasgeos son asi que le tanteo
Eb----------------------------------------------|
Bb----------------------------------------------|
Gb----------------------------------------------|
Db-9-9-9-9--8--5-5-5-5-5--2-2-2-2-2--7-7-7-7-7--|x2
Ab-9-9-9-9--8--5-5-5-5-5--2-2-2-2-2--7-7-7-7-7--|
Eb-7-7-7-7--6--3-3-3-3-3--0-0-0-0-0--5-5-5-5-5--|

YO TE ENCUENTRO TAN BELLA Y TAN REAL
YO PREPARO MI SER PARA UN RITUAL.......
aqui es un arreglo que va asi

Eb-7----10---11-12----11-12-14-12-11--7--6-7--11-12-11----|
Bb-----------------------------------------------------12-|
Gb--------------------------------------------------------|
Db--------------------------------------------------------|
Ab--------------------------------------------------------|
Eb--------------------------------------------------------|

TU MIRADA PROFUNDA Y FRIA ESQUIVE PARA EVITAR EN PIEDRA
TRANSFORMARME..

Eb------------------------------------------------------------|
Bb------------------------------------------------------------|
Gb------------------------------------------------------------|
Db------------------------------------------------------------|
Ab-9-9-9-9-9-9-9--5-5-5-5-5-5-5--2-2-2-2-2-2-2-2-2-2-2-2-2-2--|
Eb-7-7-7-7-7-7-7--3-3-3-3-3-3-3--0-0-0-0-0-0-0-0-0-0-0-0-0-0--|

luego sigue un intermedio acompañado del bajo se los pongo pero
 no estoy muy seguro

Eb--------------------------------------|
Bb---10-8-7---10-8-7--------------------|
Gb-7--------7----------6------------4---|
Db-------------------7---9-7--4-5-5-----|
Ab--------------------------------------|
Eb--------------------------------------|

Gb---------------------------------|
Db---------------------------------|
Ab---------------------------------|
Eb-3--0--2--3-5--------------------|


coro
EL POETA SE VA EL POETA SE VA..........

      |esto lo pude
       hacer otra gtr|   |              |
Eb-----15-14--------------15-14---------------------------|
Bb-----------14-15-12-----------14-15-12------------------|
Gb--------------------------------------------------------|
Db-5-5----------------7-7----------------9-9-5-5-7-7--7-7-|
Ab-5-5----------------7-7----------------9-9-5-5-7-7--7-7-|
Eb-3-3----------------5-5----------------7-7-3-3-5-5--5-5-|

  

     GUITARRA 1
Eb------------------------------------|
Bb------------------------------------|
Gb------------------------------------|
Db-5-5-------------7-7----------------|
Ab-5-5-------------7-7----------------|
Eb-3-3-------------5-5----------------|





Eb-------------------------------------|
Bb-------------------------------------|
Gb-------------------------------------|
Db-9-9-9-9-9-9-9-5-5-7-7---------------|
Ab-9-9-9-9-9-9-9-5-5-7-7---------------|
Eb-7-7-7-7-7-7-7-3-3-5-5---------------|

     GUITARRA 2

Eb------15-14-----------15-14-----------|
Bb-----------14-15-12--------14-15-12---|
Gb--------------------------------------|
Db--------------------------------------|
Ab--------------------------------------|
Eb--------------------------------------|

Eb-------------------------------------|
Bb-------------------------------------|
Gb----------------------------------16-|
Db-12-12-11-12-14-12-11-12-14-12-11----|
Ab-------------------------------------|
Eb-------------------------------------|



regresa al intro

Eb-----------------------------------|
Bb---12---11---12--------------------|
Gb-9----9----9----12-9-9-12-9-12-14--|
Db-----------------------------------|x4
Ab-----------------------------------|
Eb-----------------------------------|

Eb----------------------------------------------------|
Bb----------------------------------------------------|
Gb----------------------------------------------------|x2
Db-9-9-9-9--8--5-5-5-5-5-5-5--2-2-2-2--7-7-7-7-7-7-7--|
Ab-9-9-9-9--8--5-5-5-5-5-5-5--2-2-2-2--7-7-7-7-7-7-7--|
Eb-7-7-7-7--6--3-3-3-3-3-3-3--0-0-0-0--5-5-5-5-5-5-5--|

EL TIEMPO SE COME NUESTRAS VIDAS.......

Eb-----------------------------------------------------------|
Bb-----------------------------------------------------------|
Gb-----------------------------------------------------------|
Db-----------------------------------------------------------|x4
Ab-9-9-9-9-9-9-9--5-5-5-5-5-5-5--2-2-2-2-2-2-2-2-2-2-2-2-2-2-|
Eb-7-7-7-7-7-7-7--3-3-3-3-3-3-3--0-0-0-0-0-0-0-0-0-0-0-0-0-0-|

      junto con el bajo
Eb-------------------------------------|
Bb---10-8-7---10-8-7-------------------|
Gb-7--------7----------6------------4--|
Db-------------------7---9-7--4-5-5----|
Ab-------------------------------------|
Eb-------------------------------------|


despues sigue el coro de nuevo igual 2 veces mas y luego hay un
 cambio

Eb-------------------------------|
Bb------3---3-5---3-5-3-5-7-5-3--|
Gb-4-----------------------------|
Db-------------------------------|
Ab-------------------------------|
Eb-------------------------------|



wueno espero q les guste esta rolilla d Panda y esto ultimo solo se los dejo como una broma


Eb-------------------------------|
Bb-------------------------------|
Gb-------------3-4-----------------|
Db---6-4-4-6-4-3-4----------------------|
Ab---6-4-4-6-4-1-2----------------------|
Eb---4-2-2-4-2------------------------|

jajajaja!! ojala les haya servido, les dejo mi correo tankian_28@hotmail.com 

Fuente: tusacordes.com