a b c d e f g h i j k l m n o p q r s t u v w x y z 0-9

Atractivo Encontramos En Lo Más Repugnante

Panda

			
INTRO:

G---------------------------------------
D---------------------------------------
A—2222222-------------------------------
E---------3-33333-0000000—5-55555-------

G---------------------------------------
D---------------------------------------
A—2222222-------------------------------
E---------3-33333-0000000—5-55555-------

ESTROFA ...YO TE ENCUENTRO...
G---------------------------------------
D---------------------------------------
A-22222222------------------------------
E----------33333333-0000000000000000----

G---------------------------------------
D---------------------------------------
A-22222222------------------------------
E----------33333333-0000000000000000----

G---------------------------------------
D---------------------------------------
A-22222222------------------------------
E----------33333333-0000000000000000----

G---------------------------------------
D---------------------------------------
A-22222222------------------------------
E----------33333333-0000000000000000----

PUENTE
G---------------------------------------
D---------------------------------------
A------5...-----------------------------
E-3...-------2...—3...-5...-------------

ESTRIBILLO ...EL POETA SE VA...
G----------------------------------------
D----------------------------------------
A----------22----------------------------
E--33--55----22-332----------------------

G---------------------------------------
D---------------------------------------
A---------------------------------------
E--33--55--2222222-33333333-------------

INTRO X2
ESTROFA X4
PUENTE X1
ESTRIBILLO X2


INTERMEDIO
G---------------------------------------
D---------------------------------------
A--22222222-----------------------------
E-----------33333333-0000000000000000---

ESTRIBILLO
G---------------------------------------
D---------------------------------------
A-------------------22------------------
E-33333333-55555555---22-332------------

G----------------------------------------
D----------------------------------------
A----------------------------------------
E-33333333-55555555-2222222-3333333------

TERMINA EN BFuente: Tus acordes