a b c d e f g h i j k l m n o p q r s t u v w x y z 0-9

Amnistia (unplugged)

Panda

			
Esta tablatura la transcribi yo gracias a la ayuda de un videotutorialque encontre en 
youtube http://www.youtube.com/watch?v=z1SrG9yW2Rw&feature=related 
al usuarioque lo escribio es quien merece los creditos, este tab lleva el primer y segundo
verso de la guitarra de arturo, solamente le falta una partecita del verso final, para ver la 
version del videotutorial [que aclaro no es mio] pueden entrar al enlace antes dado.


1er Verso

e|------------------------------------------------||
B|--3/7/10--10~--12b---10-8-8h10-8~--6~-----------||
G|--------------------------------------5-5h7-5~--||
D|------------------------------------------------||
A|------------------------------------------------||
E|------------------------------------------------||


e|---------------------------------------||
B|---------------------------------------||
G|------------------------5-7-7/9-5-5~---||
D|--7-5---------------5-7----------------||
A|------7-5-3-0-3-5-7--------------------||
E|---------------------------------------||


e|---------------------------------||
B|--15-15---13-13---10-10---5-5~~--||
G|--14-14---12-12----9--9---5-5~~--||
D|---------------------------------||
A|---------------------------------||
E|---------------------------------||


e|----------------------------------------------||
B|------------------------8-8--8-8--------------||
G|--7-7b-5~~-------5~-----9-9--9-9--7-7--5-5~~--||
D|-----------5-5h7------------------------------||
A|----------------------------------------------||
E|----------------------------------------------||

2do Verso

e|--------------8-10-10b-8h10-8~-----8---8--10-12-10--8--9----------||
B|--3/5-5~~-6/8-----------------------------------------------------||
G|--3/5-5~~------------------------9---9---10-12-10-9--9--9--5h7-5~-||
D|------------------------------------------------------------------||
A|------------------------------------------------------------------||
E|------------------------------------------------------------------||


e|-----------------------------------------------------------------||
B|---8~8~8~8~8~8~8~------------------------------------------------||
G|--9~9~9~9~9~9~9~9~-9\5-5h7-5~-----------------------5-7/9-5-5~---||
D|------------------------------7-5---------------5-7--------------||
A|----------------------------------7-5-3-0-3-5-7------------------||
E|-----------------------------------------------------------------||

Fuente: Tusacordes