a b c d e f g h i j k l m n o p q r s t u v w x y z 0-9

Amnistia (unplugged)

Panda

			
Aca toca Pepe                                                            
E||---------------------------------|-------|-------|-------|-------|
B||---------------------------------|-------|-------|-------|-------|
G||---------------------------------|-------|-------|-------|-------|
D||---------------------------------|-------|-------|-------|-------|
A||---------------------------------|-------|-------|-------|-------|
E||---------------------------------|-------|-------|-------|-------|

Empieza ARturo
-------------------------|---------------------------|-------------------------|
-----5s--8----10~--------|--L\-----------12br----10--|--8s--10~----8-----------|
-------------------------|---------------------------|-------------------------|
-------------------------|---------------------------|-------------------------|
-------------------------|---------------------------|-------------------------|
-------------------------|---------------------------|-------------------------|


---------------------------|------------------------|
-----5br------1s--3----1~--|--L~--------------------|
---------------------------|------------------------|
---------------------------|---------------7--5-----|
---------------------------|---------------------7--|
---------------------------|------------------------|

    
----------------------------|----------------------------|-------|-------|
----------------------------|----------------------------|-------|-------|
----------------------------|--5s--7--Lbr----5~------L\--|-------|-------|
----------------------5--7--|----------------------------|-------|-------|
--5s--3--0--3--5s--7--------|----------------------------|-------|-------|
----------------------------|----------------------------|-------|-------|


------------------10--|--10s---8-----8----------------|----------------------|
------------------12--|--12s--10----10----10--10s--8--|----------------------|
----------------------|--------------------9---9s--7--|--7s--9---------------|
----------------------|-------------------------------|----------------------|
----------------------|-------------------------------|----------------------|
----------------------|-------------------------------|----------------------|

 
-------------------------|------------------------|-------------------------|
-------------------------|------------------------|-------------------------|
----------------------7--|--7br----5~-------------|-------------------5~----|
--7--5-------------------|------------------------|---------5--5s--7--------|
--------7--5-------------|------------------------|-------------------------|
--------------8----------|------------------------|-------------------------|


--------------------|-------------------------|----------------------------|
--------------------|-------------------------|----------------------------|
--L-----------------|-------9--9----9--9s--7--|--7--7s--5~-----------------|
--------------------|-------------------------|----------------------------|
--------------------|-------------------------|----------------------------|
--------------------|-------------------------|----------------------------|


-------|-------------------------|----------------------------|
-------|--6----6--6--6--6--6--6--|--6--6--6--6---8-----8---8--|
-------|--5----5--5--5--5--5--5--|--5--5--5--5---9-----9---9--|
-------|--7----7--7--7--7--7--7--|--7--7--7--7--10----10--10--|
-------|--8----8--8--8--8--8--8--|--8--8--8--8----------------|
-------|-------------------------|----------------------------|


--------------------------------|--10--------10----------10----|
---8---8---8-----8---8---8---8--|----8------8----8----8---8----8-----|
---9---9---9-----9---9---9---9--|----0------0----0----0---0----0-----|
--10--10--10----10--10--10--10--|----9------9----9----9---9----9-----|
--------------------------------|---10-----10---10---10--10---10-----|
--------------------------------|------------------------------------|


-----------------------------|-------------------------|
---8---8---8---8--6----6--6--|--6--6--6----6--6--6--6--|
---0---0---0---0--5----5--5--|--5--5--5----5--5--5--5--|
---9---9---9---9--7----7--7--|--7--7--7----7--7--7--7--|
--10--10--10--10--8----8--8--|--8--8--8----8--8--8--8--|
-----------------------------|-------------------------|


-------------------------|------------------------10--|
--6----6--6--6--6--6--6--|--6--6--6--6---8-----8----8---|
--5----5--5--5--5--5--5--|--5--5--5--5---9-----9----9---|
--7----7--7--7--7--7--7--|--7--7--7--7--10----10---10---|
--8----8--8--8--8--8--8--|--8--8--8--8------------------|
-------------------------|------------------------------|


----------10--------10----------|------------------------------|
---8---8----8------8----8----8---8--|---8-----8---8---8---8---8----|
---9---9----9------9----9----9---9--|---0-----0---0---0---0---0----|
--10--10---10-----10---10---10--10--|---9-----9---9---9---9---9----|
------------------------------------|--10----10--10--10--10--10----|
------------------------------------|------------------------------|

       
-----------------------------|--------7----7--7--7--7--|-------------------|
---8---8---8---8--6----6--6--|--6--6--8----8--8--8--8--|--6----------------|
---0---0---0---0--5----5--5--|--5--5--7----7--7--7--7--|--5----------------|
---9---9---9---9--7----7--7--|--7--7-------------------|--7----------------|
--10--10--10--10--8----8--8--|--8--8-------------------|--8----------------|
-----------------------------|-------------------------|-------------------|


-------------------|----------------------|-------------------------|
--L----------------|---------------2g5----|--5~-------------8s--10--|
--L----------------|---------------2g5----|--5----------------------|
--L----------------|----------------------|-------------------------|
--L----------------|----------------------|-------------------------|
-------------------|----------------------|-------------------------|


---------------------------------|------------------8-----|
---L--13--15br----13s--15----13--|--L---------------------|
---------------------------------|-----------5s--9-----9--|
---------------------------------|------------------------|
---------------------------------|------------------------|
---------------------------------|------------------------|


--8------10-------12-------10-----|--8-----8------------------|
----------------------------------|---------------------------|
-----10---LS--12---LS--10------9--|-----9-------5--5s-7---5~--|
----------------------------------|---------------------------|
----------------------------------|---------------------------|
----------------------------------|---------------------------|


------------------------|---------------------------|--------------------------|
------------------8--L--|---8--L--8--L--8--L--8--L--|--8--L--8--L--8--L--8-----|
--L--------7s--9-----9--|---L--9--L--9--L--9--L--9--|--L--9--L--9--L--9--L--5--|
------------------------|---------------------------|--------------------------|
------------------------|---------------------------|--------------------------|
------------------------|---------------------------|--------------------------|


--------------------------|----------------------------|
--------------------------|----------------------------|
--5s-7~---5---------------|----------------------------|
-----------------7--5-----|----------------------5--7--|
-----------------------7--|--5s--3--0--3--5s--7--------|
--------------------------|----------------------------|


------------------------|----------------------|------------------------|
------------------------|----------------------|------------------------|
--5s--7--Lbr------------|--5-------------5-----|-----5-------5-------5--|
------------------------|----------------------|------------------------|
------------------------|----------------------|------------------------|
------------------------|----------------------|------------------------|


-----------------------|-----------------------|------------------------|
-----------------------|-----------------------|------------------------|
-------5------------7--|-------5-------4-------|--5-------7-------5~----|
-----------------------|-----------------------|------------------------|
-----------------------|-----------------------|------------------------|
-----------------------|-----------------------|------------------------|

   
-----------------------|-------------------------|-----------15br---------|
----------------8br----|--5--3-------------------|------------------------|
--L--------------------|--------5s-7---5~--------|------------------------|
-----------------------|-------------------------|------------------------|
-----------------------|-------------------------|------------------------|
-----------------------|-------------------------|------------------------|


-------------------------|---------------------------|-------------------------|
--15--13--10-------------|--10------13---------------|--6----6--6--6--6--6--6--|
-------------------------|--10------14---------------|--5----5--5--5--5--5--5--|
-------------------------|---------------------------|--7----7--7--7--7--7--7--|
-------------------------|---------------------------|--8----8--8--8--8--8--8--|
-------------------------|---------------------------|-------------------------|


----------------------------|--------------------------------|
--6--6--6--6---8-----8---8--|---8---8---8-----8---8---8---8--|
--5--5--5--5---9-----9---9--|---9---9---9-----9---9---9---9--|
--7--7--7--7--10----10--10--|--10--10--10----10--10--10--10--|
--8--8--8--8----------------|--------------------------------|
----------------------------|--------------------------------|


--10--------10----------10----|-----------------------------|
----8------8----8----8---8----8-----|---8---8---8---8--6----6--6--|
----0------0----0----0---0----0-----|---0---0---0---0--5----5--5--|
----9------9----9----9---9----9-----|---9---9---9---9--7----7--7--|
---10-----10---10---10--10---10-----|--10--10--10--10--8----8--8--|
------------------------------------|-----------------------------|


-------------------------|-------------------------|
--6--6--6----6--6--6--6--|--6----6--6--6--6--6--6--|
--5--5--5----5--5--5--5--|--5----5--5--5--5--5--5--|
--7--7--7----7--7--7--7--|--7----7--7--7--7--7--7--|
--8--8--8----8--8--8--8--|--8----8--8--8--8--8--8--|
-------------------------|-------------------------|


------------------------10--|----------10--------10----------|
--6--6--6--6---8-----8----8---|---8---8----8------8----8----8---8--|
--5--5--5--5---9-----9----9---|---9---9----9------9----9----9---9--|
--7--7--7--7--10----10---10---|--10--10---10-----10---10---10--10--|
--8--8--8--8------------------|------------------------------------|
------------------------------|------------------------------------|


------------------------------|-----------------------------|
---8-----8---8---8---8---8----|---8---8---8---8--6----6--6--|
---0-----0---0---0---0---0----|---0---0---0---0--5----5--5--|
---9-----9---9---9---9---9----|---9---9---9---9--7----7--7--|
--10----10--10--10--10--10----|--10--10--10--10--8----8--8--|
------------------------------|-----------------------------|


  v  ^  v    ^  v  ^  v     ^    v  ^  v  ^  v  ^   
  E  E  Q    E  E  E  E     Q    E  E  E  E  E  E   
-------------------------|-------------------------|
--6--6--6----6--6--6--6--|--6----6--6--6--6--6--6--|
--5--5--5----5--5--5--5--|--5----5--5--5--5--5--5--|
--7--7--7----7--7--7--7--|--7----7--7--7--7--7--7--|
--8--8--8----8--8--8--8--|--8----8--8--8--8--8--8--|
-------------------------|-------------------------|


------------------------10--|----------10--------10----------|
--6--6--6--6---8-----8----8---|---8---8----8------8----8----8---8--|
--5--5--5--5---9-----9----9---|---9---9----9------9----9----9---9--|
--7--7--7--7--10----10---10---|--10--10---10-----10---10---10--10--|
--8--8--8--8------------------|------------------------------------|
------------------------------|------------------------------------|


------------------------------|-----------------------------|
---8-----8---8---8---8---8----|---8---8---8---8--6----6--6--|
---0-----0---0---0---0---0----|---0---0---0---0--5----5--5--|
---9-----9---9---9---9---9----|---9---9---9---9--7----7--7--|
--10----10--10--10--10--10----|--10--10--10--10--8----8--8--|
------------------------------|-----------------------------|


-------------------------|-------------------------|
--6--6--6----6--6--6--6--|--6----6--6--6--6--6--6--|
--5--5--5----5--5--5--5--|--5----5--5--5--5--5--5--|
--7--7--7----7--7--7--7--|--7----7--7--7--7--7--7--|
--8--8--8----8--8--8--8--|--8----8--8--8--8--8--8--|
-------------------------|-------------------------|


------------------------10--|----------10--------10----------|
--6--6--6--6---8-----8----8---|---8---8----8------8----8----8---8--|
--5--5--5--5---9-----9----9---|---9---9----9------9----9----9---9--|
--7--7--7--7--10----10---10---|--10--10---10-----10---10---10--10--|
--8--8--8--8------------------|------------------------------------|
------------------------------|------------------------------------|


------------------------------|-----------------------------|
---8-----8---8---8---8---8----|---8---8---8---8--6----6--6--|
---0-----0---0---0---0---0----|---0---0---0---0--5----5--5--|
---9-----9---9---9---9---9----|---9---9---9---9--7----7--7--|
--10----10--10--10--10--10----|--10--10--10--10--8----8--8--|
------------------------------|-----------------------------|


                                          HACER ESTA PARTE A SU MANERA        
--------7----7--7--7--7--|---------------------------------------------------|
--6--6--8----8--8--8--8--|--6----6--6--6--6----------------------------6--6--|
--5--5--7----7--7--7--7--|--5----5--5--5--5----------------------------5--5--|
--7--7-------------------|--7----7--7--7--7----------------------------7--7--|
--8--8-------------------|--8----8--8--8--8----------------------------8--8--|
-------------------------|---------------------------------------------------|


--------------10----10--10--|--10--10--12------10--10--10--10--|
--6--6--6--6---8-----8---8--|---8---8---8---8---8---8---8---8--|
--5--5--5--5---9-----9---9--|---9---9---9---9---9---9---9---9--|
--7--7--7--7--10----10--10--|--10--10--10--10--10--10--10--10--|
--8--8--8--8----------------|----------------------------------|
----------------------------|----------------------------------|

  
--10----------10------10--12--10--|
---8---8---8---8---8---8---8---8--|
---9---9---9---9---9---9---9---9--|
--10--10--10--10--10--10--10--10--|
----------------------------------|
----------------------------------|


   DISCULPEN Q SE OIGA MAL TODA ESTA PARTE :(                             
--10---------------------10--10--10--10------10--10--|
---8----------------------8---8---8---8---8---8---8--|
---9----------------------9---9---9---9---9---9---9--|
--10---------------------10--10--10--10--10--10--10--|
-----------------------------------------------------|
-----------------------------------------------------|


--10--10--12------10--10--10--10--|--10----------10------10--12--10--|
---8---8---8---8---8---8---8---8--|---8---8---8---8---8---8---8---8--|
---9---9---9---9---9---9---9---9--|---9---9---9---9---9---9---9---9--|
--10--10--10--10--10--10--10--10--|--10--10--10--10--10--10--10--10--|
----------------------------------|----------------------------------|
----------------------------------|----------------------------------|


--10--10--10--10--10--10--10--10--|--10--10--12------10--10--10--10--|
---8---8---8---8---8---8---8---8--|---8---8---8---8---8---8---8---8--|
---9---9---9---9---9---9---9---9--|---9---9---9---9---9---9---9---9--|
--10--10--10--10--10--10--10--10--|--10--10--10--10--10--10--10--10--|
----------------------------------|----------------------------------|
----------------------------------|----------------------------------|


--10----------10------10--12--10--|--10--10--10--10--10------10--10--|
---8---8---8---8---8---8---8---8--|---8---8---8---8---8---8---8---8--|
---9---9---9---9---9---9---9---9--|---9---9---9---9---9---9---9---9--|
--10--10--10--10--10--10--10--10--|--10--10--10--10--10--10--10--10--|
----------------------------------|----------------------------------|
----------------------------------|----------------------------------|

                           
--10--10--10--10--10------10--10--|--------------------||
---8---8---8---8---8---8---8---8--|---8----------------||
---9---9---9---9---9---9---9---9--|---9----------------||
--10--10--10--10--10--10--10--10--|--10----------------||
----------------------------------|--------------------||
----------------------------------|--------------------||

Fuente: Tusacordes