a b c d e f g h i j k l m n o p q r s t u v w x y z 0-9

Ah Pero Como Vendo Cassettes

Panda

			
INTRO

G-----------------------------------
D-----------------------------------
A-----------------------------------
E--5555555555-77777777777-----------

ESTROFA

G-----------------------------------
D-----------------------------------
A--4444------2222-------------------
E-------0000------2222-------------- X8

PUENTE
G-----------------------------------
D-----------------------------------
A-----------------------------------
E--5555555555-77777777777-----------

ESTRIBILLO

G-----------------------------------
D-----------------------------------
A-------2-22------------------------
E--0-00------2-22-5-55-------------- X3

G-----------------------------------
D-----------------------------------
A-----------0-00-2-22---------------
E-0-00-2-22-------------------------

PUENTE
ESTROFA
PUENTE
ESTRIBILLO
ESTROFA solo el bajo y sin voz
FINAL = ESTROFA
TERMINA EN Csus5Fuente: Tus acordes